  0
SECTION
  2
HEADER
  9
$ACADVER
  1
AC1014
  9
$DWGCODEPAGE
  3
dos932
  9
$EXTMIN
 10
-292.4868155417
 20
-2.357507896633
  9
$EXTMAX
 10
284.9216686502
 20
1548.003071433
  9
$LIMMIN
 10
0
 20
0
  9
$LIMMAX
 10
8410
 20
5940
  9
$LTSCALE
 40
10
  9
$DIMSCALE
 40
10
  9
$DIMSTYLE
  2
M7DIMSTL
  9
$HANDSEED
  5
7FFFFFFF
  0
ENDSEC
  0
SECTION
  2
CLASSES
  0
CLASS
  1
CSOFTARXCLASS
  2
CSoftArxClass
  3
CSRasterApi
 90
     0
280
     0
281
     0
  0
CLASS
  1
IMAGEDEF
  2
AcDbRasterImageDef
  3
ISM
 90
     0
280
     0
281
     0
  0
CLASS
  1
RASTERVARIABLES
  2
AcDbRasterVariables
  3
ISM
 90
     0
280
     0
281
     0
  0
CLASS
  1
IMAGE
  2
AcDbRasterImage
  3
ISM
 90
   127
280
     0
281
     0
  0
CLASS
  1
IMAGEDEF_REACTOR
  2
AcDbRasterImageDefReactor
  3
ISM
 90
     1
280
     0
281
     0
  0
CLASS
  1
HATCH
  2
AcDbHatch
  3
M7
 90
     0
280
     0
281
     1
  0
ENDSEC
  0
SECTION
  2
TABLES
  0
TABLE
  2
VPORT
  5
FF
100
AcDbSymbolTable
 70
     5
  0
VPORT
  5
100
100
AcDbSymbolTableRecord
100
AcDbViewportTableRecord
  2
*ACTIVE
 70
     0
 10
0
 20
0
 11
1
 21
1
 12
4205
 22
2970
 13
0
 23
0
 14
0
 24
0
 15
0
 25
0
 16
0
 26
0
 36
1
 17
0
 27
0
 37
0
 40
2970
 41
1.415824915825
 42
50
 43
0
 44
0
 50
0
 51
0
 71
     0
 72
   100
 73
     1
 74
     3
 75
     0
 76
     0
 77
     0
 78
     0
  0
ENDTAB
  0
TABLE
  2
LTYPE
  5
101
100
AcDbSymbolTable
 70
     1
  0
LTYPE
  5
102
100
AcDbSymbolTableRecord
100
AcDbLinetypeTableRecord
  2
BYBLOCK
 70
     0
  3

 72
    65
 73
     0
 40
0
  0
LTYPE
  5
103
100
AcDbSymbolTableRecord
100
AcDbLinetypeTableRecord
  2
BYLAYER
 70
     0
  3

 72
    65
 73
     0
 40
0
  0
LTYPE
  5
104
100
AcDbSymbolTableRecord
100
AcDbLinetypeTableRecord
  2
CONTINUOUS
 70
     0
  3
Solid line
 72
    65
 73
     0
 40
0
  0
LTYPE
  5
105
100
AcDbSymbolTableRecord
100
AcDbLinetypeTableRecord
  2
DOT
 70
     0
  3
...............................
 72
    65
 73
     2
 40
2
 49
1
 74
     0
 49
-1
 74
     0
  0
LTYPE
  5
106
100
AcDbSymbolTableRecord
100
AcDbLinetypeTableRecord
  2
DASHED
 70
     0
  3
- - - - - - - - - - - - - - - -
 72
    65
 73
     2
 40
4
 49
2
 74
     0
 49
-2
 74
     0
  0
LTYPE
  5
107
100
AcDbSymbolTableRecord
100
AcDbLinetypeTableRecord
  2
DASHED2
 70
     0
  3
-- -- -- -- -- -- -- -- -- -- -
 72
    65
 73
     2
 40
8
 49
5
 74
     0
 49
-3
 74
     0
  0
LTYPE
  5
108
100
AcDbSymbolTableRecord
100
AcDbLinetypeTableRecord
  2
CENTER
 70
     0
  3
--------- - --------- - -------
 72
    65
 73
     4
 40
23
 49
20
 74
     0
 49
-1
 74
     0
 49
1
 74
     0
 49
-1
 74
     0
  0
LTYPE
  5
109
100
AcDbSymbolTableRecord
100
AcDbLinetypeTableRecord
  2
CENTERX2
 70
     0
  3
-------------- - --------------
 72
    65
 73
     4
 40
43
 49
40
 74
     0
 49
-1
 74
     0
 49
1
 74
     0
 49
-1
 74
     0
  0
LTYPE
  5
10A
100
AcDbSymbolTableRecord
100
AcDbLinetypeTableRecord
  2
CENTER2
 70
     0
  3
------ - ----- - ------ - -----
 72
    65
 73
     4
 40
13
 49
10
 74
     0
 49
-1
 74
     0
 49
1
 74
     0
 49
-1
 74
     0
  0
LTYPE
  5
10B
100
AcDbSymbolTableRecord
100
AcDbLinetypeTableRecord
  2
PHANTOM
 70
     0
  3
-------- - - ------- - - ------
 72
    65
 73
     6
 40
25
 49
20
 74
     0
 49
-1
 74
     0
 49
1
 74
     0
 49
-1
 74
     0
 49
1
 74
     0
 49
-1
 74
     0
  0
LTYPE
  5
10C
100
AcDbSymbolTableRecord
100
AcDbLinetypeTableRecord
  2
PHANTOMX2
 70
     0
  3
------------- - - -------------
 72
    65
 73
     6
 40
45
 49
40
 74
     0
 49
-1
 74
     0
 49
1
 74
     0
 49
-1
 74
     0
 49
1
 74
     0
 49
-1
 74
     0
  0
LTYPE
  5
10D
100
AcDbSymbolTableRecord
100
AcDbLinetypeTableRecord
  2
PHANTOM2
 70
     0
  3
---- - - ---- - - ---- - - ----
 72
    65
 73
     6
 40
15
 49
10
 74
     0
 49
-1
 74
     0
 49
1
 74
     0
 49
-1
 74
     0
 49
1
 74
     0
 49
-1
 74
     0
  0
LTYPE
  5
10E
100
AcDbSymbolTableRecord
100
AcDbLinetypeTableRecord
  2
ACAD_ISO06W100
 70
     0
  3
------------ - - - ------------
 72
    65
 73
     8
 40
47
 49
40
 74
     0
 49
-1
 74
     0
 49
1
 74
     0
 49
-1
 74
     0
 49
1
 74
     0
 49
-1
 74
     0
 49
1
 74
     0
 49
-1
 74
     0
  0
LTYPE
  5
10F
100
AcDbSymbolTableRecord
100
AcDbLinetypeTableRecord
  2
ACAD_ISO14W100
 70
     0
  3
---- - - - -------- - - - -----
 72
    65
 73
     8
 40
27
 49
20
 74
     0
 49
-1
 74
     0
 49
1
 74
     0
 49
-1
 74
     0
 49
1
 74
     0
 49
-1
 74
     0
 49
1
 74
     0
 49
-1
 74
     0
  0
LTYPE
  5
110
100
AcDbSymbolTableRecord
100
AcDbLinetypeTableRecord
  2
ACAD_ISO11W100
 70
     0
  3
------- ------ - ------- ------
 72
    65
 73
     6
 40
44
 49
20
 74
     0
 49
-1
 74
     0
 49
20
 74
     0
 49
-1
 74
     0
 49
1
 74
     0
 49
-1
 74
     0
  0
LTYPE
  5
111
100
AcDbSymbolTableRecord
100
AcDbLinetypeTableRecord
  2
ACAD_ISO13W100
 70
     0
  3
------ ------ - - ------ ------
 72
    65
 73
     8
 40
46
 49
20
 74
     0
 49
-1
 74
     0
 49
20
 74
     0
 49
-1
 74
     0
 49
1
 74
     0
 49
-1
 74
     0
 49
1
 74
     0
 49
-1
 74
     0
  0
LTYPE
  5
112
100
AcDbSymbolTableRecord
100
AcDbLinetypeTableRecord
  2
ACAD_ISO15W100
 70
     0
  3
------ ----- - - - ------ -----
 72
    65
 73
    10
 40
48
 49
20
 74
     0
 49
-1
 74
     0
 49
20
 74
     0
 49
-1
 74
     0
 49
1
 74
     0
 49
-1
 74
     0
 49
1
 74
     0
 49
-1
 74
     0
 49
1
 74
     0
 49
-1
 74
     0
  0
LTYPE
  5
113
100
AcDbSymbolTableRecord
100
AcDbLinetypeTableRecord
  2
HIDDEN
 70
     0
  3
. . . . . . . . . . . . . . . .
 72
    65
 73
     2
 40
1.5
 49
1
 74
     0
 49
-0.5
 74
     0
  0
ENDTAB
  0
TABLE
  2
LAYER
  5
114
100
AcDbSymbolTable
 70
     1
  0
LAYER
  5
115
100
AcDbSymbolTableRecord
100
AcDbLayerTableRecord
  2
0
 70
     0
 62
     7
  6
CONTINUOUS
  0
LAYER
  5
116
100
AcDbSymbolTableRecord
100
AcDbLayerTableRecord
  2
レイヤ1
 70
     0
 62
     7
  6
CONTINUOUS
  0
ENDTAB
  0
TABLE
  2
STYLE
  5
117
100
AcDbSymbolTable
 70
     1
  0
STYLE
  5
118
100
AcDbSymbolTableRecord
100
AcDbTextStyleTableRecord
  2
STANDARD
 70
     0
 40
0
 41
0
 50
0
 71
     0
 42
1
  3
txt
  4
bigfont
  0
STYLE
  5
119
100
AcDbSymbolTableRecord
100
AcDbTextStyleTableRecord
  2
VSTANDARD
 70
     4
 40
0
 41
0
 50
0
 71
     0
 42
1
  3
txt
  4
bigfont
  0
ENDTAB
  0
TABLE
  2
VIEW
  5
11A
100
AcDbSymbolTable
 70
     0
  0
ENDTAB
  0
TABLE
  2
UCS
  5
11B
100
AcDbSymbolTable
 70
     0
  0
ENDTAB
  0
TABLE
  2
APPID
  5
11C
100
AcDbSymbolTable
 70
     1
  0
APPID
  5
11D
100
AcDbSymbolTableRecord
100
AcDbRegAppTableRecord
  2
ACAD
 70
     0
  0
ENDTAB
  0
TABLE
  2
DIMSTYLE
  5
11E
100
AcDbSymbolTable
 70
     1
  0
DIMSTYLE
105
11F
100
AcDbSymbolTableRecord
100
AcDbDimStyleTableRecord
  2
M7DIMSTL
 70
     0
  3

  4

  5

  6

  7

 40
10
 41
2.5
 42
0.625
 43
3.75
 44
1.25
 45
0
 46
0
 47
0
 48
0
140
2.5
141
2.5
142
0
143
0.03937007874016
144
1
145
0
146
1
147
0.625
 71
     0
 72
     0
 73
     0
 74
     0
 75
     0
 76
     0
 77
     1
 78
     8
170
     0
171
     3
172
     1
173
     0
174
     0
175
     0
176
     0
177
     0
178
     0
270
     2
271
     2
272
     2
273
     2
274
     3
340
118
275
     0
280
     0
281
     0
282
     0
283
     0
284
     8
285
     0
286
     0
287
     3
288
     0
  0
ENDTAB
  0
TABLE
  2
BLOCK_RECORD
  5
120
100
AcDbSymbolTable
 70
     2
  0
BLOCK_RECORD
  5
121
100
AcDbSymbolTableRecord
100
AcDbBlockTableRecord
  2
*MODEL_SPACE
  0
BLOCK_RECORD
  5
122
100
AcDbSymbolTableRecord
100
AcDbBlockTableRecord
  2
*PAPER_SPACE
  0
BLOCK_RECORD
  5
123
100
AcDbSymbolTableRecord
100
AcDbBlockTableRecord
  2
_DOT
  0
BLOCK_RECORD
  5
124
100
AcDbSymbolTableRecord
100
AcDbBlockTableRecord
  2
_OPEN30
  0
ENDTAB
  0
ENDSEC
  0
SECTION
  2
BLOCKS
  0
BLOCK
  5
125
100
AcDbEntity
  8
0
100
AcDbBlockBegin
  2
*MODEL_SPACE
 70
     0
 10
0
 20
0
  3
*MODEL_SPACE
  1

  0
ENDBLK
  5
126
100
AcDbEntity
  8
0
100
AcDbBlockEnd
  0
BLOCK
  5
127
100
AcDbEntity
 67
     1
  8
0
100
AcDbBlockBegin
  2
*PAPER_SPACE
 70
     0
 10
0
 20
0
  3
*PAPER_SPACE
  1

  0
ENDBLK
  5
128
100
AcDbEntity
 67
     1
  8
0
100
AcDbBlockEnd
  0
BLOCK
  5
129
100
AcDbEntity
 67
     1
  8
0
100
AcDbBlockBegin
  2
_DOT
 70
     0
 10
0
 20
0
  3
_DOT
  1

  0
LWPOLYLINE
  5
12A
100
AcDbEntity
  8
0
  6
BYBLOCK
 62
     0
100
AcDbPolyline
 90
     2
 70
     1
 43
0.5
 10
-0.25
 20
0
 42
1
 10
0.25
 20
0
 42
1
  0
LINE
  5
12B
100
AcDbEntity
  8
0
  6
BYBLOCK
 62
     0
100
AcDbLine
 10
-0.5
 20
0
 11
-1
 21
0
  0
ENDBLK
  5
12C
100
AcDbEntity
  8
0
100
AcDbBlockEnd
  0
BLOCK
  5
12D
100
AcDbEntity
 67
     1
  8
0
100
AcDbBlockBegin
  2
_OPEN30
 70
     0
 10
0
 20
0
  3
_OPEN30
  1

  0
LINE
  5
12E
100
AcDbEntity
  8
0
  6
BYBLOCK
 62
     0
100
AcDbLine
 10
-1
 20
0.26794919
 11
0
 21
0
  0
LINE
  5
12F
100
AcDbEntity
  8
0
  6
BYBLOCK
 62
     0
100
AcDbLine
 10
-1
 20
-0.26794919
 11
0
 21
0
  0
LINE
  5
130
100
AcDbEntity
  8
0
  6
BYBLOCK
 62
     0
100
AcDbLine
 10
0
 20
0
 11
-1
 21
0
  0
ENDBLK
  5
131
100
AcDbEntity
  8
0
100
AcDbBlockEnd
  0
ENDSEC
  0
SECTION
  2
ENTITIES
  0
LINE
  5
132
100
AcDbEntity
  8
レイヤ1
  6
CONTINUOUS
 62
     0
100
AcDbLine
 10
30.25861179167
 20
1545.252288543
 11
13.75391445076
 21
1548.003071433
  0
LINE
  5
133
100
AcDbEntity
  8
レイヤ1
  6
CONTINUOUS
 62
     0
100
AcDbLine
 10
13.75391445076
 20
1548.003071433
 11
-9.627740115532
 21
1534.936852705
  0
LINE
  5
134
100
AcDbEntity
  8
レイヤ1
  6
CONTINUOUS
 62
     0
100
AcDbLine
 10
-9.627740115532
 20
1534.936852705
 11
-28.19552462406
 21
1517.744459641
  0
LINE
  5
135
100
AcDbEntity
  8
レイヤ1
  6
CONTINUOUS
 62
     0
100
AcDbLine
 10
-28.19552462406
 20
1517.744459641
 11
-42.63713479736
 21
1499.176675133
  0
LINE
  5
136
100
AcDbEntity
  8
レイヤ1
  6
CONTINUOUS
 62
     0
100
AcDbLine
 10
-42.63713479736
 20
1499.176675133
 11
-44.01252624243
 21
1486.110456405
  0
LINE
  5
137
100
AcDbEntity
  8
レイヤ1
  6
CONTINUOUS
 62
     0
100
AcDbLine
 10
-44.01252624243
 20
1486.110456405
 11
-47.45100485512
 21
1475.795020567
  0
LINE
  5
138
100
AcDbEntity
  8
レイヤ1
  6
CONTINUOUS
 62
     0
100
AcDbLine
 10
30.25861179167
 20
1545.252288543
 11
40.0666870605
 21
1546.102747746
  0
LINE
  5
139
100
AcDbEntity
  8
レイヤ1
  6
CONTINUOUS
 62
     0
100
AcDbLine
 10
40.0666870605
 20
1546.102747746
 11
47.13727889471
 21
1547.281179719
  0
LINE
  5
13A
100
AcDbEntity
  8
レイヤ1
  6
CONTINUOUS
 62
     0
100
AcDbLine
 10
47.13727889471
 20
1547.281179719
 11
64.10669929681
 21
1544.68862938
  0
LINE
  5
13B
100
AcDbEntity
  8
レイヤ1
  6
CONTINUOUS
 62
     0
100
AcDbLine
 10
64.10669929681
 20
1544.68862938
 11
82.25455167127
 21
1535.73254639
  0
LINE
  5
13C
100
AcDbEntity
  8
レイヤ1
  6
CONTINUOUS
 62
     0
100
AcDbLine
 10
82.25455167127
 20
1535.73254639
 11
99.35211850096
 21
1520.255806486
  0
LINE
  5
13D
100
AcDbEntity
  8
レイヤ1
  6
CONTINUOUS
 62
     0
100
AcDbLine
 10
99.35211850096
 20
1520.255806486
 11
122.5904106249
 21
1491.292138042
  0
LINE
  5
13E
100
AcDbEntity
  8
レイヤ1
  6
CONTINUOUS
 62
     0
100
AcDbLine
 10
122.5904106249
 20
1491.292138042
 11
123.600771152
 21
1482.53568014
  0
LINE
  5
13F
100
AcDbEntity
  8
レイヤ1
  6
CONTINUOUS
 62
     0
100
AcDbLine
 10
123.600771152
 20
1482.53568014
 11
130.6732948419
 21
1475.799943292
  0
LINE
  5
140
100
AcDbEntity
  8
レイヤ1
  6
CONTINUOUS
 62
     0
100
AcDbLine
 10
130.6732948419
 20
1475.799943292
 11
130.6732948419
 21
1481.525319613
  0
LINE
  5
141
100
AcDbEntity
  8
レイヤ1
  6
CONTINUOUS
 62
     0
100
AcDbLine
 10
130.6732948419
 20
1481.525319613
 11
130.6732948419
 21
1501.395743313
  0
LINE
  5
142
100
AcDbEntity
  8
レイヤ1
  6
CONTINUOUS
 62
     0
100
AcDbLine
 10
130.6732948419
 20
1501.395743313
 11
135.0515237928
 21
1500.048595943
  0
LINE
  5
143
100
AcDbEntity
  8
レイヤ1
  6
CONTINUOUS
 62
     0
100
AcDbLine
 10
135.0515237928
 20
1500.048595943
 11
138.4193922166
 21
1491.965711726
  0
LINE
  5
144
100
AcDbEntity
  8
レイヤ1
  6
CONTINUOUS
 62
     0
100
AcDbLine
 10
138.4193922166
 20
1491.965711726
 11
138.4193922166
 21
1489.60820383
  0
LINE
  5
145
100
AcDbEntity
  8
レイヤ1
  6
CONTINUOUS
 62
     0
100
AcDbLine
 10
138.4193922166
 20
1489.60820383
 11
141.450473798
 21
1492.639285411
  0
LINE
  5
146
100
AcDbEntity
  8
レイヤ1
  6
CONTINUOUS
 62
     0
100
AcDbLine
 10
141.450473798
 20
1492.639285411
 11
145.8287027489
 21
1494.660006465
  0
LINE
  5
147
100
AcDbEntity
  8
レイヤ1
  6
CONTINUOUS
 62
     0
100
AcDbLine
 10
145.8287027489
 20
1494.660006465
 11
154.5851606506
 21
1488.597843303
  0
LINE
  5
148
100
AcDbEntity
  8
レイヤ1
  6
CONTINUOUS
 62
     0
100
AcDbLine
 10
154.5851606506
 20
1488.597843303
 11
154.921947493
 21
1482.872466982
  0
LINE
  5
149
100
AcDbEntity
  8
レイヤ1
  6
CONTINUOUS
 62
     0
100
AcDbLine
 10
154.921947493
 20
1482.872466982
 11
152.227652754
 21
1478.831024874
  0
LINE
  5
14A
100
AcDbEntity
  8
レイヤ1
  6
CONTINUOUS
 62
     0
100
AcDbLine
 10
152.227652754
 20
1478.831024874
 11
151.2172922269
 21
1469.737780129
  0
LINE
  5
14B
100
AcDbEntity
  8
レイヤ1
  6
CONTINUOUS
 62
     0
100
AcDbLine
 10
151.2172922269
 20
1469.737780129
 11
151.5540790693
 21
1468.39063276
  0
LINE
  5
14C
100
AcDbEntity
  8
レイヤ1
  6
CONTINUOUS
 62
     0
100
AcDbLine
 10
151.5540790693
 20
1468.39063276
 11
154.921947493
 21
1468.39063276
  0
LINE
  5
14D
100
AcDbEntity
  8
レイヤ1
  6
CONTINUOUS
 62
     0
100
AcDbLine
 10
154.921947493
 20
1468.39063276
 11
159.6369632863
 21
1455.255945907
  0
LINE
  5
14E
100
AcDbEntity
  8
レイヤ1
  6
CONTINUOUS
 62
     0
100
AcDbLine
 10
159.6369632863
 20
1455.255945907
 11
158.9633896015
 21
1447.846635375
  0
LINE
  5
14F
100
AcDbEntity
  8
レイヤ1
  6
CONTINUOUS
 62
     0
100
AcDbLine
 10
158.9633896015
 20
1447.846635375
 11
163.0048317101
 21
1444.815553794
  0
LINE
  5
150
100
AcDbEntity
  8
レイヤ1
  6
CONTINUOUS
 62
     0
100
AcDbLine
 10
163.0048317101
 20
1444.815553794
 11
167.7198475033
 21
1443.468406424
  0
LINE
  5
151
100
AcDbEntity
  8
レイヤ1
  6
CONTINUOUS
 62
     0
100
AcDbLine
 10
167.7198475033
 20
1443.468406424
 11
166.0359132914
 21
1437.069456419
  0
LINE
  5
152
100
AcDbEntity
  8
レイヤ1
  6
CONTINUOUS
 62
     0
100
AcDbLine
 10
166.0359132914
 20
1437.069456419
 11
158.9633896015
 21
1419.556540615
  0
LINE
  5
153
100
AcDbEntity
  8
レイヤ1
  6
CONTINUOUS
 62
     0
100
AcDbLine
 10
158.9633896015
 20
1419.556540615
 11
163.6784053948
 21
1418.546180088
  0
LINE
  5
154
100
AcDbEntity
  8
レイヤ1
  6
CONTINUOUS
 62
     0
100
AcDbLine
 10
163.6784053948
 20
1418.546180088
 11
164.3519790796
 21
1415.515098507
  0
LINE
  5
155
100
AcDbEntity
  8
レイヤ1
  6
CONTINUOUS
 62
     0
100
AcDbLine
 10
164.3519790796
 20
1415.515098507
 11
167.7198475033
 21
1407.43221429
  0
LINE
  5
156
100
AcDbEntity
  8
レイヤ1
  6
CONTINUOUS
 62
     0
100
AcDbLine
 10
167.7198475033
 20
1407.43221429
 11
168.7302080304
 21
1396.318248491
  0
LINE
  5
157
100
AcDbEntity
  8
レイヤ1
  6
CONTINUOUS
 62
     0
100
AcDbLine
 10
123.600771152
 20
1482.53568014
 11
124.6111316792
 21
1470.074566972
  0
LINE
  5
158
100
AcDbEntity
  8
レイヤ1
  6
CONTINUOUS
 62
     0
100
AcDbLine
 10
124.6111316792
 20
1470.074566972
 11
127.3054264182
 21
1463.002043282
  0
LINE
  5
159
100
AcDbEntity
  8
レイヤ1
  6
CONTINUOUS
 62
     0
100
AcDbLine
 10
127.3054264182
 20
1463.002043282
 11
131.0100816843
 21
1453.572011695
  0
LINE
  5
15A
100
AcDbEntity
  8
レイヤ1
  6
CONTINUOUS
 62
     0
100
AcDbLine
 10
131.0100816843
 20
1453.572011695
 11
129.9997211572
 21
1453.235224853
  0
LINE
  5
15B
100
AcDbEntity
  8
レイヤ1
  6
CONTINUOUS
 62
     0
100
AcDbLine
 10
129.9997211572
 20
1453.235224853
 11
129.9997211572
 21
1450.204143272
  0
LINE
  5
15C
100
AcDbEntity
  8
レイヤ1
  6
CONTINUOUS
 62
     0
100
AcDbLine
 10
129.9997211572
 20
1450.204143272
 11
138.0826053742
 21
1450.540930114
  0
LINE
  5
15D
100
AcDbEntity
  8
レイヤ1
  6
CONTINUOUS
 62
     0
100
AcDbLine
 10
138.0826053742
 20
1450.540930114
 11
147.1758501184
 21
1449.530569587
  0
LINE
  5
15E
100
AcDbEntity
  8
レイヤ1
  6
CONTINUOUS
 62
     0
100
AcDbLine
 10
147.1758501184
 20
1449.530569587
 11
153.2380132811
 21
1447.17306169
  0
LINE
  5
15F
100
AcDbEntity
  8
レイヤ1
  6
CONTINUOUS
 62
     0
100
AcDbLine
 10
153.2380132811
 20
1447.17306169
 11
159.6369632863
 21
1440.100538
  0
LINE
  5
160
100
AcDbEntity
  8
レイヤ1
  6
CONTINUOUS
 62
     0
100
AcDbLine
 10
159.6369632863
 20
1440.100538
 11
162.6680448677
 21
1436.395882734
  0
LINE
  5
161
100
AcDbEntity
  8
レイヤ1
  6
CONTINUOUS
 62
     0
100
AcDbLine
 10
162.6680448677
 20
1436.395882734
 11
163.6784053948
 21
1434.038374838
  0
LINE
  5
162
100
AcDbEntity
  8
レイヤ1
  6
CONTINUOUS
 62
     0
100
AcDbLine
 10
129.9997211572
 20
1450.204143272
 11
127.6422132606
 21
1448.856995902
  0
LINE
  5
163
100
AcDbEntity
  8
レイヤ1
  6
CONTINUOUS
 62
     0
100
AcDbLine
 10
127.6422132606
 20
1448.856995902
 11
121.2432632554
 21
1448.52020906
  0
LINE
  5
164
100
AcDbEntity
  8
レイヤ1
  6
CONTINUOUS
 62
     0
100
AcDbLine
 10
121.2432632554
 20
1448.52020906
 11
118.8857553588
 21
1444.815553794
  0
LINE
  5
165
100
AcDbEntity
  8
レイヤ1
  6
CONTINUOUS
 62
     0
100
AcDbLine
 10
118.8857553588
 20
1444.815553794
 11
114.8443132503
 21
1441.110898527
  0
LINE
  5
166
100
AcDbEntity
  8
レイヤ1
  6
CONTINUOUS
 62
     0
100
AcDbLine
 10
109.4557237722
 20
1408.779361659
 11
124.2743448368
 21
1408.779361659
  0
LINE
  5
167
100
AcDbEntity
  8
レイヤ1
  6
CONTINUOUS
 62
     0
100
AcDbLine
 10
124.2743448368
 20
1408.779361659
 11
132.3572290538
 21
1415.515098507
  0
LINE
  5
168
100
AcDbEntity
  8
レイヤ1
  6
CONTINUOUS
 62
     0
100
AcDbLine
 10
132.3572290538
 20
1415.515098507
 11
141.1136869556
 21
1420.903687985
  0
LINE
  5
169
100
AcDbEntity
  8
レイヤ1
  6
CONTINUOUS
 62
     0
100
AcDbLine
 10
141.1136869556
 20
1420.903687985
 11
142.7976211675
 21
1423.261195882
  0
LINE
  5
16A
100
AcDbEntity
  8
レイヤ1
  6
CONTINUOUS
 62
     0
100
AcDbLine
 10
142.7976211675
 20
1423.261195882
 11
144.4815553794
 21
1433.701587995
  0
LINE
  5
16B
100
AcDbEntity
  8
レイヤ1
  6
CONTINUOUS
 62
     0
100
AcDbLine
 10
144.4815553794
 20
1433.701587995
 11
137.7458185318
 21
1441.784472212
  0
LINE
  5
16C
100
AcDbEntity
  8
レイヤ1
  6
CONTINUOUS
 62
     0
100
AcDbLine
 10
137.7458185318
 20
1441.784472212
 11
131.0100816843
 21
1446.836274848
  0
LINE
  5
16D
100
AcDbEntity
  8
レイヤ1
  6
CONTINUOUS
 62
     0
100
AcDbLine
 10
131.0100816843
 20
1446.836274848
 11
120.5696895707
 21
1447.17306169
  0
LINE
  5
16E
100
AcDbEntity
  8
レイヤ1
  6
CONTINUOUS
 62
     0
100
AcDbLine
 10
118.8857553588
 20
1444.815553794
 11
119.2225422012
 21
1452.561651168
  0
LINE
  5
16F
100
AcDbEntity
  8
レイヤ1
  6
CONTINUOUS
 62
     0
100
AcDbLine
 10
119.2225422012
 20
1452.561651168
 11
117.2018211469
 21
1455.929519592
  0
LINE
  5
170
100
AcDbEntity
  8
レイヤ1
  6
CONTINUOUS
 62
     0
100
AcDbLine
 10
158.3812570862
 20
1412.46856208
 11
161.9165530033
 21
1407.990520585
  0
LINE
  5
171
100
AcDbEntity
  8
レイヤ1
  6
CONTINUOUS
 62
     0
100
AcDbLine
 10
161.9165530033
 20
1407.990520585
 11
164.0377305536
 21
1400.684242356
  0
LINE
  5
172
100
AcDbEntity
  8
レイヤ1
  6
CONTINUOUS
 62
     0
100
AcDbLine
 10
151.0749788575
 20
1399.505810384
 11
158.3812570862
 21
1407.047775007
  0
LINE
  5
173
100
AcDbEntity
  8
レイヤ1
  6
CONTINUOUS
 62
     0
100
AcDbLine
 10
158.3812570862
 20
1407.047775007
 11
158.3812570862
 21
1412.46856208
  0
LINE
  5
174
100
AcDbEntity
  8
レイヤ1
  6
CONTINUOUS
 62
     0
100
AcDbLine
 10
168.7302080304
 20
1396.318248491
 11
167.0462738186
 21
1390.929659013
  0
LINE
  5
175
100
AcDbEntity
  8
レイヤ1
  6
CONTINUOUS
 62
     0
100
AcDbLine
 10
164.0377305536
 20
1400.684242356
 11
162.1522393978
 21
1395.263455283
  0
LINE
  5
176
100
AcDbEntity
  8
レイヤ1
  6
CONTINUOUS
 62
     0
100
AcDbLine
 10
162.1522393978
 20
1395.263455283
 11
157.9098842973
 21
1391.492472972
  0
LINE
  5
177
100
AcDbEntity
  8
レイヤ1
  6
CONTINUOUS
 62
     0
100
AcDbLine
 10
151.0749788575
 20
1393.377964128
 11
151.0749788575
 21
1399.505810384
  0
LINE
  5
178
100
AcDbEntity
  8
レイヤ1
  6
CONTINUOUS
 62
     0
100
AcDbLine
 10
114.7792741086
 20
1399.741496778
 11
117.8431972368
 21
1399.977183173
  0
LINE
  5
179
100
AcDbEntity
  8
レイヤ1
  6
CONTINUOUS
 62
     0
100
AcDbLine
 10
117.8431972368
 20
1399.977183173
 11
118.0788836312
 21
1395.499141678
  0
LINE
  5
17A
100
AcDbEntity
  8
レイヤ1
  6
CONTINUOUS
 62
     0
100
AcDbLine
 10
118.0788836312
 20
1395.499141678
 11
121.1428067594
 21
1397.856005623
  0
LINE
  5
17B
100
AcDbEntity
  8
レイヤ1
  6
CONTINUOUS
 62
     0
100
AcDbLine
 10
121.1428067594
 20
1397.856005623
 11
122.3212387318
 21
1395.499141678
  0
LINE
  5
17C
100
AcDbEntity
  8
レイヤ1
  6
CONTINUOUS
 62
     0
100
AcDbLine
 10
122.3212387318
 20
1395.499141678
 11
121.6141795484
 21
1390.314040999
  0
LINE
  5
17D
100
AcDbEntity
  8
レイヤ1
  6
CONTINUOUS
 62
     0
100
AcDbLine
 10
167.0462738186
 20
1390.929659013
 11
162.3312580253
 21
1386.888216905
  0
LINE
  5
17E
100
AcDbEntity
  8
レイヤ1
  6
CONTINUOUS
 62
     0
100
AcDbLine
 10
162.3312580253
 20
1386.888216905
 11
155.5955211778
 21
1384.193922166
  0
LINE
  5
17F
100
AcDbEntity
  8
レイヤ1
  6
CONTINUOUS
 62
     0
100
AcDbLine
 10
155.5955211778
 20
1384.193922166
 11
149.8701448574
 21
1383.520348481
  0
LINE
  5
180
100
AcDbEntity
  8
レイヤ1
  6
CONTINUOUS
 62
     0
100
AcDbLine
 10
149.8701448574
 20
1383.520348481
 11
142.7976211675
 21
1383.857135324
  0
LINE
  5
181
100
AcDbEntity
  8
レイヤ1
  6
CONTINUOUS
 62
     0
100
AcDbLine
 10
142.7976211675
 20
1383.857135324
 11
139.0929659013
 21
1375.774251107
  0
LINE
  5
182
100
AcDbEntity
  8
レイヤ1
  6
CONTINUOUS
 62
     0
100
AcDbLine
 10
139.0929659013
 20
1375.774251107
 11
137.4090316895
 21
1369.712087944
  0
LINE
  5
183
100
AcDbEntity
  8
レイヤ1
  6
CONTINUOUS
 62
     0
100
AcDbLine
 10
139.0929659013
 20
1375.774251107
 11
138.4193922166
 21
1350.515237928
  0
LINE
  5
184
100
AcDbEntity
  8
レイヤ1
  6
CONTINUOUS
 62
     0
100
AcDbLine
 10
157.9098842973
 20
1391.492472972
 11
154.1389019857
 21
1390.314040999
  0
LINE
  5
185
100
AcDbEntity
  8
レイヤ1
  6
CONTINUOUS
 62
     0
100
AcDbLine
 10
154.1389019857
 20
1390.314040999
 11
148.4824285183
 21
1389.842668211
  0
LINE
  5
186
100
AcDbEntity
  8
レイヤ1
  6
CONTINUOUS
 62
     0
100
AcDbLine
 10
148.4824285183
 20
1389.842668211
 11
151.0749788575
 21
1393.377964128
  0
LINE
  5
187
100
AcDbEntity
  8
レイヤ1
  6
CONTINUOUS
 62
     0
100
AcDbLine
 10
115.2506468976
 20
1379.001094065
 11
118.0788836312
 21
1382.300703587
  0
LINE
  5
188
100
AcDbEntity
  8
レイヤ1
  6
CONTINUOUS
 62
     0
100
AcDbLine
 10
118.0788836312
 20
1382.300703587
 11
120.6714339705
 21
1380.886585221
  0
LINE
  5
189
100
AcDbEntity
  8
レイヤ1
  6
CONTINUOUS
 62
     0
100
AcDbLine
 10
120.6714339705
 20
1380.886585221
 11
121.6141795484
 21
1375.465798148
  0
LINE
  5
18A
100
AcDbEntity
  8
レイヤ1
  6
CONTINUOUS
 62
     0
100
AcDbLine
 10
121.6141795484
 20
1375.465798148
 11
119.4930019981
 21
1370.987756653
  0
LINE
  5
18B
100
AcDbEntity
  8
レイヤ1
  6
CONTINUOUS
 62
     0
100
AcDbLine
 10
121.6141795484
 20
1390.314040999
 11
116.6647652644
 21
1389.371295422
  0
LINE
  5
18C
100
AcDbEntity
  8
レイヤ1
  6
CONTINUOUS
 62
     0
100
AcDbLine
 10
116.6647652644
 20
1389.371295422
 11
117.6075108423
 21
1387.014431477
  0
LINE
  5
18D
100
AcDbEntity
  8
レイヤ1
  6
CONTINUOUS
 62
     0
100
AcDbLine
 10
117.6075108423
 20
1387.014431477
 11
120.9071203649
 21
1384.893253927
  0
LINE
  5
18E
100
AcDbEntity
  8
レイヤ1
  6
CONTINUOUS
 62
     0
100
AcDbLine
 10
120.9071203649
 20
1384.893253927
 11
120.6714339705
 21
1380.886585221
  0
LINE
  5
18F
100
AcDbEntity
  8
レイヤ1
  6
CONTINUOUS
 62
     0
100
AcDbLine
 10
137.4090316895
 20
1369.712087944
 11
134.3779501081
 21
1367.354580047
  0
LINE
  5
190
100
AcDbEntity
  8
レイヤ1
  6
CONTINUOUS
 62
     0
100
AcDbLine
 10
134.3779501081
 20
1367.354580047
 11
131.3468685267
 21
1361.965990569
  0
LINE
  5
191
100
AcDbEntity
  8
レイヤ1
  6
CONTINUOUS
 62
     0
100
AcDbLine
 10
131.3468685267
 20
1361.965990569
 11
131.0100816843
 21
1358.598122145
  0
LINE
  5
192
100
AcDbEntity
  8
レイヤ1
  6
CONTINUOUS
 62
     0
100
AcDbLine
 10
131.0100816843
 20
1358.598122145
 11
119.5593290435
 21
1355.567040564
  0
LINE
  5
193
100
AcDbEntity
  8
レイヤ1
  6
CONTINUOUS
 62
     0
100
AcDbLine
 10
119.5593290435
 20
1355.567040564
 11
119.2225422012
 21
1366.007432678
  0
LINE
  5
194
100
AcDbEntity
  8
レイヤ1
  6
CONTINUOUS
 62
     0
100
AcDbLine
 10
119.2225422012
 20
1366.007432678
 11
117.2018211469
 21
1359.27169583
  0
LINE
  5
195
100
AcDbEntity
  8
レイヤ1
  6
CONTINUOUS
 62
     0
100
AcDbLine
 10
131.0100816843
 20
1358.598122145
 11
129.6629343148
 21
1344.453074766
  0
LINE
  5
196
100
AcDbEntity
  8
レイヤ1
  6
CONTINUOUS
 62
     0
100
AcDbLine
 10
134.0411632657
 20
1339.738058972
 11
134.7147369505
 21
1348.494516874
  0
LINE
  5
197
100
AcDbEntity
  8
レイヤ1
  6
CONTINUOUS
 62
     0
100
AcDbLine
 10
138.4193922166
 20
1350.515237928
 11
138.756179059
 21
1339.738058972
  0
LINE
  5
198
100
AcDbEntity
  8
レイヤ1
  6
CONTINUOUS
 62
     0
100
AcDbLine
 10
119.4930019981
 20
1370.987756653
 11
119.2225422012
 21
1366.007432678
  0
LINE
  5
199
100
AcDbEntity
  8
レイヤ1
  6
CONTINUOUS
 62
     0
100
AcDbLine
 10
129.6629343148
 20
1344.453074766
 11
125.9582790487
 21
1324.582651065
  0
LINE
  5
19A
100
AcDbEntity
  8
レイヤ1
  6
CONTINUOUS
 62
     0
100
AcDbLine
 10
125.9582790487
 20
1324.582651065
 11
126.2950658911
 21
1322.898716853
  0
LINE
  5
19B
100
AcDbEntity
  8
レイヤ1
  6
CONTINUOUS
 62
     0
100
AcDbLine
 10
126.2950658911
 20
1322.898716853
 11
130.6732948419
 21
1321.888356326
  0
LINE
  5
19C
100
AcDbEntity
  8
レイヤ1
  6
CONTINUOUS
 62
     0
100
AcDbLine
 10
130.6732948419
 20
1321.888356326
 11
134.0411632657
 21
1339.738058972
  0
LINE
  5
19D
100
AcDbEntity
  8
レイヤ1
  6
CONTINUOUS
 62
     0
100
AcDbLine
 10
138.756179059
 20
1339.738058972
 11
134.0411632657
 21
1339.738058972
  0
LINE
  5
19E
100
AcDbEntity
  8
レイヤ1
  6
CONTINUOUS
 62
     0
100
AcDbLine
 10
138.756179059
 20
1339.738058972
 11
138.756179059
 21
1327.276945804
  0
LINE
  5
19F
100
AcDbEntity
  8
レイヤ1
  6
CONTINUOUS
 62
     0
100
AcDbLine
 10
138.756179059
 20
1327.276945804
 11
137.0722448471
 21
1325.929798435
  0
LINE
  5
1A0
100
AcDbEntity
  8
レイヤ1
  6
CONTINUOUS
 62
     0
100
AcDbLine
 10
137.0722448471
 20
1325.929798435
 11
136.7354580047
 21
1265.308166807
  0
LINE
  5
1A1
100
AcDbEntity
  8
レイヤ1
  6
CONTINUOUS
 62
     0
100
AcDbLine
 10
132.6940158962
 20
1315.152619479
 11
133.7043764233
 21
1336.706977391
  0
LINE
  5
1A2
100
AcDbEntity
  8
レイヤ1
  6
CONTINUOUS
 62
     0
100
AcDbLine
 10
126.2950658911
 20
1322.898716853
 11
122.9271974673
 21
1315.826193164
  0
LINE
  5
1A3
100
AcDbEntity
  8
レイヤ1
  6
CONTINUOUS
 62
     0
100
AcDbLine
 10
122.9271974673
 20
1315.826193164
 11
122.2536237825
 21
1309.427243158
  0
LINE
  5
1A4
100
AcDbEntity
  8
レイヤ1
  6
CONTINUOUS
 62
     0
100
AcDbLine
 10
128.9893606301
 20
1307.069735262
 11
130.6732948419
 21
1321.888356326
  0
LINE
  5
1A5
100
AcDbEntity
  8
レイヤ1
  6
CONTINUOUS
 62
     0
100
AcDbLine
 10
136.7354580047
 20
1265.308166807
 11
133.7043764233
 21
1264.634593122
  0
LINE
  5
1A6
100
AcDbEntity
  8
レイヤ1
  6
CONTINUOUS
 62
     0
100
AcDbLine
 10
133.7043764233
 20
1264.634593122
 11
132.0204422114
 21
1266.992101019
  0
LINE
  5
1A7
100
AcDbEntity
  8
レイヤ1
  6
CONTINUOUS
 62
     0
100
AcDbLine
 10
132.0204422114
 20
1266.992101019
 11
132.6940158962
 21
1315.152619479
  0
LINE
  5
1A8
100
AcDbEntity
  8
レイヤ1
  6
CONTINUOUS
 62
     0
100
AcDbLine
 10
122.2536237825
 20
1309.427243158
 11
122.5904106249
 21
1284.841803665
  0
LINE
  5
1A9
100
AcDbEntity
  8
レイヤ1
  6
CONTINUOUS
 62
     0
100
AcDbLine
 10
122.5904106249
 20
1284.841803665
 11
123.9375579944
 21
1283.831443138
  0
LINE
  5
1AA
100
AcDbEntity
  8
レイヤ1
  6
CONTINUOUS
 62
     0
100
AcDbLine
 10
123.9375579944
 20
1283.831443138
 11
125.9582790487
 21
1283.831443138
  0
LINE
  5
1AB
100
AcDbEntity
  8
レイヤ1
  6
CONTINUOUS
 62
     0
100
AcDbLine
 10
125.9582790487
 20
1283.831443138
 11
128.3157869453
 21
1287.199311562
  0
LINE
  5
1AC
100
AcDbEntity
  8
レイヤ1
  6
CONTINUOUS
 62
     0
100
AcDbLine
 10
128.3157869453
 20
1287.199311562
 11
128.9893606301
 21
1307.069735262
  0
LINE
  5
1AD
100
AcDbEntity
  8
レイヤ1
  6
CONTINUOUS
 62
     0
100
AcDbLine
 10
115.6997691148
 20
1276.30603006
 11
121.5636950349
 21
1272.922995875
  0
LINE
  5
1AE
100
AcDbEntity
  8
レイヤ1
  6
CONTINUOUS
 62
     0
100
AcDbLine
 10
121.5636950349
 20
1272.922995875
 11
132.0204422114
 21
1266.992101019
  0
LINE
  5
1AF
100
AcDbEntity
  8
レイヤ1
  6
CONTINUOUS
 62
     0
100
AcDbLine
 10
-47.45100485512
 20
1475.795020567
 11
-48.55139726155
 21
1474.454083827
  0
LINE
  5
1B0
100
AcDbEntity
  8
レイヤ1
  6
CONTINUOUS
 62
     0
100
AcDbLine
 10
-48.55139726155
 20
1474.454083827
 11
-52.5580659676
 21
1475.868202193
  0
LINE
  5
1B1
100
AcDbEntity
  8
レイヤ1
  6
CONTINUOUS
 62
     0
100
AcDbLine
 10
-52.5580659676
 20
1475.868202193
 11
-57.27179385707
 21
1475.632515799
  0
LINE
  5
1B2
100
AcDbEntity
  8
レイヤ1
  6
CONTINUOUS
 62
     0
100
AcDbLine
 10
-57.27179385707
 20
1475.632515799
 11
-57.97885304049
 21
1473.747024643
  0
LINE
  5
1B3
100
AcDbEntity
  8
レイヤ1
  6
CONTINUOUS
 62
     0
100
AcDbLine
 10
-57.97885304049
 20
1473.747024643
 11
-61.74983535207
 21
1473.747024643
  0
LINE
  5
1B4
100
AcDbEntity
  8
レイヤ1
  6
CONTINUOUS
 62
     0
100
AcDbLine
 10
-61.74983535207
 20
1473.747024643
 11
-66.22787684707
 21
1472.332906276
  0
LINE
  5
1B5
100
AcDbEntity
  8
レイヤ1
  6
CONTINUOUS
 62
     0
100
AcDbLine
 10
-66.22787684707
 20
1472.332906276
 11
-67.17062242496
 21
1470.44741512
  0
LINE
  5
1B6
100
AcDbEntity
  8
レイヤ1
  6
CONTINUOUS
 62
     0
100
AcDbLine
 10
-67.17062242496
 20
1470.44741512
 11
-71.41297752549
 21
1469.504669543
  0
LINE
  5
1B7
100
AcDbEntity
  8
レイヤ1
  6
CONTINUOUS
 62
     0
100
AcDbLine
 10
-71.41297752549
 20
1469.504669543
 11
-72.12003670891
 21
1463.376823286
  0
LINE
  5
1B8
100
AcDbEntity
  8
レイヤ1
  6
CONTINUOUS
 62
     0
100
AcDbLine
 10
-72.12003670891
 20
1463.376823286
 11
-70.47023194759
 21
1461.019959342
  0
LINE
  5
1B9
100
AcDbEntity
  8
レイヤ1
  6
CONTINUOUS
 62
     0
100
AcDbLine
 10
-70.47023194759
 20
1461.019959342
 11
-69.76317276417
 21
1457.24897703
  0
LINE
  5
1BA
100
AcDbEntity
  8
レイヤ1
  6
CONTINUOUS
 62
     0
100
AcDbLine
 10
-69.76317276417
 20
1457.24897703
 11
-66.46356324154
 21
1456.070545058
  0
LINE
  5
1BB
100
AcDbEntity
  8
レイヤ1
  6
CONTINUOUS
 62
     0
100
AcDbLine
 10
-66.46356324154
 20
1456.070545058
 11
-75.65533262601
 21
1448.057207645
  0
LINE
  5
1BC
100
AcDbEntity
  8
レイヤ1
  6
CONTINUOUS
 62
     0
100
AcDbLine
 10
-75.65533262601
 20
1448.057207645
 11
-79.66200133206
 21
1438.394065472
  0
LINE
  5
1BD
100
AcDbEntity
  8
レイヤ1
  6
CONTINUOUS
 62
     0
100
AcDbLine
 10
-79.66200133206
 20
1438.394065472
 11
-79.89768772653
 21
1425.902686565
  0
LINE
  5
1BE
100
AcDbEntity
  8
レイヤ1
  6
CONTINUOUS
 62
     0
100
AcDbLine
 10
-79.89768772653
 20
1425.902686565
 11
-74.94827344259
 21
1417.889349153
  0
LINE
  5
1BF
100
AcDbEntity
  8
レイヤ1
  6
CONTINUOUS
 62
     0
100
AcDbLine
 10
-74.94827344259
 20
1417.889349153
 11
-67.64199521391
 21
1414.825426025
  0
LINE
  5
1C0
100
AcDbEntity
  8
レイヤ1
  6
CONTINUOUS
 62
     0
100
AcDbLine
 10
-67.64199521391
 20
1414.825426025
 11
-68.82042718628
 21
1409.168952557
  0
LINE
  5
1C1
100
AcDbEntity
  8
レイヤ1
  6
CONTINUOUS
 62
     0
100
AcDbLine
 10
-68.82042718628
 20
1409.168952557
 11
-67.64199521391
 21
1403.748165484
  0
LINE
  5
1C2
100
AcDbEntity
  8
レイヤ1
  6
CONTINUOUS
 62
     0
100
AcDbLine
 10
-48.55139726155
 20
1474.454083827
 11
-42.43514213939
 21
1473.779222238
  0
LINE
  5
1C3
100
AcDbEntity
  8
レイヤ1
  6
CONTINUOUS
 62
     0
100
AcDbLine
 10
-42.43514213939
 20
1473.779222238
 11
-38.73048687326
 21
1469.064206445
  0
LINE
  5
1C4
100
AcDbEntity
  8
レイヤ1
  6
CONTINUOUS
 62
     0
100
AcDbLine
 10
-38.73048687326
 20
1469.064206445
 11
-40.41442108514
 21
1460.644535385
  0
LINE
  5
1C5
100
AcDbEntity
  8
レイヤ1
  6
CONTINUOUS
 62
     0
100
AcDbLine
 10
-40.41442108514
 20
1460.644535385
 11
-37.04655266138
 21
1450.540930114
  0
LINE
  5
1C6
100
AcDbEntity
  8
レイヤ1
  6
CONTINUOUS
 62
     0
100
AcDbLine
 10
-37.04655266138
 20
1450.540930114
 11
-35.69940529187
 21
1444.478766951
  0
LINE
  5
1C7
100
AcDbEntity
  8
レイヤ1
  6
CONTINUOUS
 62
     0
100
AcDbLine
 10
-35.69940529187
 20
1444.478766951
 11
-34.68904476474
 21
1449.867356429
  0
LINE
  5
1C8
100
AcDbEntity
  8
レイヤ1
  6
CONTINUOUS
 62
     0
100
AcDbLine
 10
-34.68904476474
 20
1449.867356429
 11
-28.62688160197
 21
1450.204143272
  0
LINE
  5
1C9
100
AcDbEntity
  8
レイヤ1
  6
CONTINUOUS
 62
     0
100
AcDbLine
 10
-28.62688160197
 20
1450.204143272
 11
-21.89114475445
 21
1446.162701163
  0
LINE
  5
1CA
100
AcDbEntity
  8
レイヤ1
  6
CONTINUOUS
 62
     0
100
AcDbLine
 10
-21.89114475445
 20
1446.162701163
 11
-20.54399738494
 21
1442.794832739
  0
LINE
  5
1CB
100
AcDbEntity
  8
レイヤ1
  6
CONTINUOUS
 62
     0
100
AcDbLine
 10
-20.54399738494
 20
1442.794832739
 11
-20.20721054257
 21
1432.354440626
  0
LINE
  5
1CC
100
AcDbEntity
  8
レイヤ1
  6
CONTINUOUS
 62
     0
100
AcDbLine
 10
-20.20721054257
 20
1432.354440626
 11
-13.13468685267
 21
1426.965851148
  0
LINE
  5
1CD
100
AcDbEntity
  8
レイヤ1
  6
CONTINUOUS
 62
     0
100
AcDbLine
 10
-13.13468685267
 20
1426.965851148
 11
-10.44039211366
 21
1423.597982724
  0
LINE
  5
1CE
100
AcDbEntity
  8
レイヤ1
  6
CONTINUOUS
 62
     0
100
AcDbLine
 10
-10.44039211366
 20
1423.597982724
 11
-9.766818428908
 21
1417.199032719
  0
LINE
  5
1CF
100
AcDbEntity
  8
レイヤ1
  6
CONTINUOUS
 62
     0
100
AcDbLine
 10
-9.766818428908
 20
1417.199032719
 11
-11.78753948316
 21
1416.525459034
  0
LINE
  5
1D0
100
AcDbEntity
  8
レイヤ1
  6
CONTINUOUS
 62
     0
100
AcDbLine
 10
-11.78753948316
 20
1416.525459034
 11
-13.47147369505
 21
1413.831164295
  0
LINE
  5
1D1
100
AcDbEntity
  8
レイヤ1
  6
CONTINUOUS
 62
     0
100
AcDbLine
 10
-13.47147369505
 20
1413.831164295
 11
-17.84970264594
 21
1410.126509029
  0
LINE
  5
1D2
100
AcDbEntity
  8
レイヤ1
  6
CONTINUOUS
 62
     0
100
AcDbLine
 10
-17.84970264594
 20
1410.126509029
 11
-23.91186580871
 21
1407.769001132
  0
LINE
  5
1D3
100
AcDbEntity
  8
レイヤ1
  6
CONTINUOUS
 62
     0
100
AcDbLine
 10
-23.91186580871
 20
1407.769001132
 11
-31.65796318336
 21
1407.769001132
  0
LINE
  5
1D4
100
AcDbEntity
  8
レイヤ1
  6
CONTINUOUS
 62
     0
100
AcDbLine
 10
-31.65796318336
 20
1407.769001132
 11
-33.67868423761
 21
1409.116148502
  0
LINE
  5
1D5
100
AcDbEntity
  8
レイヤ1
  6
CONTINUOUS
 62
     0
100
AcDbLine
 10
-27.95330791722
 20
1403.390772181
 11
-23.91186580871
 21
1407.769001132
  0
LINE
  5
1D6
100
AcDbEntity
  8
レイヤ1
  6
CONTINUOUS
 62
     0
100
AcDbLine
 10
-23.91186580871
 20
1407.769001132
 11
-15.82898159168
 21
1409.452935344
  0
LINE
  5
1D7
100
AcDbEntity
  8
レイヤ1
  6
CONTINUOUS
 62
     0
100
AcDbLine
 10
-15.82898159168
 20
1409.452935344
 11
-9.766818428908
 21
1404.064345866
  0
LINE
  5
1D8
100
AcDbEntity
  8
レイヤ1
  6
CONTINUOUS
 62
     0
100
AcDbLine
 10
-9.766818428908
 20
1404.064345866
 11
-3.031081581385
 21
1404.737919551
  0
LINE
  5
1D9
100
AcDbEntity
  8
レイヤ1
  6
CONTINUOUS
 62
     0
100
AcDbLine
 10
-3.031081581385
 20
1404.737919551
 11
9.093244744156
 21
1390.592872171
  0
LINE
  5
1DA
100
AcDbEntity
  8
レイヤ1
  6
CONTINUOUS
 62
     0
100
AcDbLine
 10
-66.46356324154
 20
1456.070545058
 11
-58.26412373107
 21
1455.255945907
  0
LINE
  5
1DB
100
AcDbEntity
  8
レイヤ1
  6
CONTINUOUS
 62
     0
100
AcDbLine
 10
-32.66832371049
 20
1443.468406424
 11
-31.99475002573
 21
1446.836274848
  0
LINE
  5
1DC
100
AcDbEntity
  8
レイヤ1
  6
CONTINUOUS
 62
     0
100
AcDbLine
 10
-31.99475002573
 20
1446.836274848
 11
-29.30045528672
 21
1447.846635375
  0
LINE
  5
1DD
100
AcDbEntity
  8
レイヤ1
  6
CONTINUOUS
 62
     0
100
AcDbLine
 10
-29.30045528672
 20
1447.846635375
 11
-25.59580002059
 21
1443.468406424
  0
LINE
  5
1DE
100
AcDbEntity
  8
レイヤ1
  6
CONTINUOUS
 62
     0
100
AcDbLine
 10
-25.59580002059
 20
1443.468406424
 11
-24.24865265108
 21
1440.774111685
  0
LINE
  5
1DF
100
AcDbEntity
  8
レイヤ1
  6
CONTINUOUS
 62
     0
100
AcDbLine
 10
-24.24865265108
 20
1440.774111685
 11
-24.24865265108
 21
1437.406243261
  0
LINE
  5
1E0
100
AcDbEntity
  8
レイヤ1
  6
CONTINUOUS
 62
     0
100
AcDbLine
 10
-20.20721054257
 20
1432.354440626
 11
-27.61652107484
 21
1439.090177473
  0
LINE
  5
1E1
100
AcDbEntity
  8
レイヤ1
  6
CONTINUOUS
 62
     0
100
AcDbLine
 10
-27.61652107484
 20
1439.090177473
 11
-32.66832371049
 21
1443.468406424
  0
LINE
  5
1E2
100
AcDbEntity
  8
レイヤ1
  6
CONTINUOUS
 62
     0
100
AcDbLine
 10
-32.66832371049
 20
1443.468406424
 11
-37.72012634613
 21
1443.131619582
  0
LINE
  5
1E3
100
AcDbEntity
  8
レイヤ1
  6
CONTINUOUS
 62
     0
100
AcDbLine
 10
-34.68904476474
 20
1438.416603788
 11
-32.33153686811
 21
1438.416603788
  0
LINE
  5
1E4
100
AcDbEntity
  8
レイヤ1
  6
CONTINUOUS
 62
     0
100
AcDbLine
 10
-32.33153686811
 20
1438.416603788
 11
-26.60616054771
 21
1433.364801153
  0
LINE
  5
1E5
100
AcDbEntity
  8
レイヤ1
  6
CONTINUOUS
 62
     0
100
AcDbLine
 10
-26.60616054771
 20
1433.364801153
 11
-14.1450473798
 21
1424.271556409
  0
LINE
  5
1E6
100
AcDbEntity
  8
レイヤ1
  6
CONTINUOUS
 62
     0
100
AcDbLine
 10
-14.1450473798
 20
1424.271556409
 11
-13.80826053742
 21
1420.903687985
  0
LINE
  5
1E7
100
AcDbEntity
  8
レイヤ1
  6
CONTINUOUS
 62
     0
100
AcDbLine
 10
-13.80826053742
 20
1420.903687985
 11
-14.48183422217
 21
1419.556540615
  0
LINE
  5
1E8
100
AcDbEntity
  8
レイヤ1
  6
CONTINUOUS
 62
     0
100
AcDbLine
 10
-14.48183422217
 20
1419.556540615
 11
-21.55435791207
 21
1424.608343251
  0
LINE
  5
1E9
100
AcDbEntity
  8
レイヤ1
  6
CONTINUOUS
 62
     0
100
AcDbLine
 10
-20.37560396376
 20
1428.818178781
 11
-21.55435791207
 21
1424.608343251
  0
LINE
  5
1EA
100
AcDbEntity
  8
レイヤ1
  6
CONTINUOUS
 62
     0
100
AcDbLine
 10
-21.55435791207
 20
1424.608343251
 11
-22.5647184392
 21
1420.903687985
  0
LINE
  5
1EB
100
AcDbEntity
  8
レイヤ1
  6
CONTINUOUS
 62
     0
100
AcDbLine
 10
-22.5647184392
 20
1420.903687985
 11
-25.25901317821
 21
1415.851885349
  0
LINE
  5
1EC
100
AcDbEntity
  8
レイヤ1
  6
CONTINUOUS
 62
     0
100
AcDbLine
 10
-25.25901317821
 20
1415.851885349
 11
-28.2900947596
 21
1414.841524822
  0
LINE
  5
1ED
100
AcDbEntity
  8
レイヤ1
  6
CONTINUOUS
 62
     0
100
AcDbLine
 10
-28.2900947596
 20
1414.841524822
 11
-29.97402897148
 21
1416.188672192
  0
LINE
  5
1EE
100
AcDbEntity
  8
レイヤ1
  6
CONTINUOUS
 62
     0
100
AcDbLine
 10
-29.97402897148
 20
1416.188672192
 11
-30.9843894986
 21
1421.240474827
  0
LINE
  5
1EF
100
AcDbEntity
  8
レイヤ1
  6
CONTINUOUS
 62
     0
100
AcDbLine
 10
-24.92222633583
 20
1432.354440626
 11
-25.93258686296
 21
1427.30263799
  0
LINE
  5
1F0
100
AcDbEntity
  8
レイヤ1
  6
CONTINUOUS
 62
     0
100
AcDbLine
 10
-25.93258686296
 20
1427.30263799
 11
-26.94294739009
 21
1421.240474827
  0
LINE
  5
1F1
100
AcDbEntity
  8
レイヤ1
  6
CONTINUOUS
 62
     0
100
AcDbLine
 10
-26.94294739009
 20
1421.240474827
 11
-27.95330791722
 21
1421.240474827
  0
LINE
  5
1F2
100
AcDbEntity
  8
レイヤ1
  6
CONTINUOUS
 62
     0
100
AcDbLine
 10
-27.95330791722
 20
1421.240474827
 11
-28.96366844435
 21
1422.924409039
  0
LINE
  5
1F3
100
AcDbEntity
  8
レイヤ1
  6
CONTINUOUS
 62
     0
100
AcDbLine
 10
-44.79265003603
 20
1441.44768537
 11
-41.76156845464
 21
1444.141980109
  0
LINE
  5
1F4
100
AcDbEntity
  8
レイヤ1
  6
CONTINUOUS
 62
     0
100
AcDbLine
 10
-41.76156845464
 20
1444.141980109
 11
-37.72012634613
 21
1443.131619582
  0
LINE
  5
1F5
100
AcDbEntity
  8
レイヤ1
  6
CONTINUOUS
 62
     0
100
AcDbLine
 10
-37.72012634613
 20
1443.131619582
 11
-34.68904476474
 21
1438.416603788
  0
LINE
  5
1F6
100
AcDbEntity
  8
レイヤ1
  6
CONTINUOUS
 62
     0
100
AcDbLine
 10
-34.68904476474
 20
1438.416603788
 11
-29.97402897148
 21
1432.691227468
  0
LINE
  5
1F7
100
AcDbEntity
  8
レイヤ1
  6
CONTINUOUS
 62
     0
100
AcDbLine
 10
-29.97402897148
 20
1432.691227468
 11
-28.2900947596
 21
1427.639424832
  0
LINE
  5
1F8
100
AcDbEntity
  8
レイヤ1
  6
CONTINUOUS
 62
     0
100
AcDbLine
 10
-28.2900947596
 20
1427.639424832
 11
-28.96366844435
 21
1422.924409039
  0
LINE
  5
1F9
100
AcDbEntity
  8
レイヤ1
  6
CONTINUOUS
 62
     0
100
AcDbLine
 10
-28.96366844435
 20
1422.924409039
 11
-30.9843894986
 21
1421.240474827
  0
LINE
  5
1FA
100
AcDbEntity
  8
レイヤ1
  6
CONTINUOUS
 62
     0
100
AcDbLine
 10
-30.9843894986
 20
1421.240474827
 11
-33.00511055286
 21
1419.893327458
  0
LINE
  5
1FB
100
AcDbEntity
  8
レイヤ1
  6
CONTINUOUS
 62
     0
100
AcDbLine
 10
-33.00511055286
 20
1419.893327458
 11
-37.38333950375
 21
1419.219753773
  0
LINE
  5
1FC
100
AcDbEntity
  8
レイヤ1
  6
CONTINUOUS
 62
     0
100
AcDbLine
 10
-67.64199521391
 20
1414.825426025
 11
-57.9273368887
 21
1414.50473798
  0
LINE
  5
1FD
100
AcDbEntity
  8
レイヤ1
  6
CONTINUOUS
 62
     0
100
AcDbLine
 10
-47.82373161741
 20
1405.411493236
 11
-55.23304214969
 21
1403.053985339
  0
LINE
  5
1FE
100
AcDbEntity
  8
レイヤ1
  6
CONTINUOUS
 62
     0
100
AcDbLine
 10
-66.69924963601
 20
1471.390160698
 11
-59.2744842582
 21
1467.380272233
  0
LINE
  5
1FF
100
AcDbEntity
  8
レイヤ1
  6
CONTINUOUS
 62
     0
100
AcDbLine
 10
-59.2744842582
 20
1467.380272233
 11
-53.21232109543
 21
1461.991682755
  0
LINE
  5
200
100
AcDbEntity
  8
レイヤ1
  6
CONTINUOUS
 62
     0
100
AcDbLine
 10
-53.21232109543
 20
1461.991682755
 11
-50.8548131988
 21
1456.603093277
  0
LINE
  5
201
100
AcDbEntity
  8
レイヤ1
  6
CONTINUOUS
 62
     0
100
AcDbLine
 10
-57.97885304049
 20
1473.747024643
 11
-53.54910793781
 21
1470.074566972
  0
LINE
  5
202
100
AcDbEntity
  8
レイヤ1
  6
CONTINUOUS
 62
     0
100
AcDbLine
 10
-53.54910793781
 20
1470.074566972
 11
-48.83409214454
 21
1464.012403809
  0
LINE
  5
203
100
AcDbEntity
  8
レイヤ1
  6
CONTINUOUS
 62
     0
100
AcDbLine
 10
-48.83409214454
 20
1464.012403809
 11
-46.47658424791
 21
1457.613453804
  0
LINE
  5
204
100
AcDbEntity
  8
レイヤ1
  6
CONTINUOUS
 62
     0
100
AcDbLine
 10
114.8443132503
 20
1441.110898527
 11
113.4971658808
 21
1444.478766951
  0
LINE
  5
205
100
AcDbEntity
  8
レイヤ1
  6
CONTINUOUS
 62
     0
100
AcDbLine
 10
113.4971658808
 20
1444.478766951
 11
111.8132316689
 21
1447.17306169
  0
LINE
  5
206
100
AcDbEntity
  8
レイヤ1
  6
CONTINUOUS
 62
     0
100
AcDbLine
 10
111.8132316689
 20
1447.17306169
 11
109.4557237722
 21
1446.836274848
  0
LINE
  5
207
100
AcDbEntity
  8
レイヤ1
  6
CONTINUOUS
 62
     0
100
AcDbLine
 10
109.4557237722
 20
1446.836274848
 11
101.3728395552
 21
1440.100538
  0
LINE
  5
208
100
AcDbEntity
  8
レイヤ1
  6
CONTINUOUS
 62
     0
100
AcDbLine
 10
101.3728395552
 20
1440.100538
 11
98.00497113146
 21
1433.02801431
  0
LINE
  5
209
100
AcDbEntity
  8
レイヤ1
  6
CONTINUOUS
 62
     0
100
AcDbLine
 10
98.00497113146
 20
1433.02801431
 11
97.66818428908
 21
1425.281916936
  0
LINE
  5
20A
100
AcDbEntity
  8
レイヤ1
  6
CONTINUOUS
 62
     0
100
AcDbLine
 10
97.66818428908
 20
1425.281916936
 11
102.3832000823
 21
1417.535819561
  0
LINE
  5
20B
100
AcDbEntity
  8
レイヤ1
  6
CONTINUOUS
 62
     0
100
AcDbLine
 10
102.3832000823
 20
1417.535819561
 11
107.0982158756
 21
1413.831164295
  0
LINE
  5
20C
100
AcDbEntity
  8
レイヤ1
  6
CONTINUOUS
 62
     0
100
AcDbLine
 10
107.0982158756
 20
1413.831164295
 11
109.4557237722
 21
1408.779361659
  0
LINE
  5
20D
100
AcDbEntity
  8
レイヤ1
  6
CONTINUOUS
 62
     0
100
AcDbLine
 10
117.2018211469
 20
1455.929519592
 11
111.4764448265
 21
1456.939880119
  0
LINE
  5
20E
100
AcDbEntity
  8
レイヤ1
  6
CONTINUOUS
 62
     0
100
AcDbLine
 10
111.4764448265
 20
1456.939880119
 11
108.7821500875
 21
1455.59273275
  0
LINE
  5
20F
100
AcDbEntity
  8
レイヤ1
  6
CONTINUOUS
 62
     0
100
AcDbLine
 10
108.7821500875
 20
1455.59273275
 11
96.32103691958
 21
1441.44768537
  0
LINE
  5
210
100
AcDbEntity
  8
レイヤ1
  6
CONTINUOUS
 62
     0
100
AcDbLine
 10
96.32103691958
 20
1441.44768537
 11
90.93244744156
 21
1427.30263799
  0
LINE
  5
211
100
AcDbEntity
  8
レイヤ1
  6
CONTINUOUS
 62
     0
100
AcDbLine
 10
90.93244744156
 20
1427.30263799
 11
92.27959481106
 21
1413.15759061
  0
LINE
  5
212
100
AcDbEntity
  8
レイヤ1
  6
CONTINUOUS
 62
     0
100
AcDbLine
 10
92.27959481106
 20
1413.15759061
 11
94.30031586532
 21
1410.463295871
  0
LINE
  5
213
100
AcDbEntity
  8
レイヤ1
  6
CONTINUOUS
 62
     0
100
AcDbLine
 10
94.30031586532
 20
1410.463295871
 11
96.99461060433
 21
1412.147230083
  0
LINE
  5
214
100
AcDbEntity
  8
レイヤ1
  6
CONTINUOUS
 62
     0
100
AcDbLine
 10
96.99461060433
 20
1412.147230083
 11
95.9842500772
 21
1418.209393246
  0
LINE
  5
215
100
AcDbEntity
  8
レイヤ1
  6
CONTINUOUS
 62
     0
100
AcDbLine
 10
95.9842500772
 20
1418.209393246
 11
97.66818428908
 21
1425.281916936
  0
LINE
  5
216
100
AcDbEntity
  8
レイヤ1
  6
CONTINUOUS
 62
     0
100
AcDbLine
 10
113.4971658808
 20
1444.478766951
 11
113.4610565787
 21
1452.024508403
  0
LINE
  5
217
100
AcDbEntity
  8
レイヤ1
  6
CONTINUOUS
 62
     0
100
AcDbLine
 10
113.4610565787
 20
1452.024508403
 11
112.0759775564
 21
1451.909085151
  0
LINE
  5
218
100
AcDbEntity
  8
レイヤ1
  6
CONTINUOUS
 62
     0
100
AcDbLine
 10
112.0759775564
 20
1451.909085151
 11
106.5356614671
 21
1446.715038817
  0
LINE
  5
219
100
AcDbEntity
  8
レイヤ1
  6
CONTINUOUS
 62
     0
100
AcDbLine
 10
106.5356614671
 20
1446.715038817
 11
101.9187313927
 21
1441.636415735
  0
LINE
  5
21A
100
AcDbEntity
  8
レイヤ1
  6
CONTINUOUS
 62
     0
100
AcDbLine
 10
101.9187313927
 20
1441.636415735
 11
98.00497113146
 21
1433.02801431
  0
LINE
  5
21B
100
AcDbEntity
  8
レイヤ1
  6
CONTINUOUS
 62
     0
100
AcDbLine
 10
104.740707979
 20
1415.683491928
 11
96.48943034076
 21
1415.178311665
  0
LINE
  5
21C
100
AcDbEntity
  8
レイヤ1
  6
CONTINUOUS
 62
     0
100
AcDbLine
 10
94.30031586532
 20
1410.463295871
 11
93.80318500047
 21
1405.397970246
  0
LINE
  5
21D
100
AcDbEntity
  8
レイヤ1
  6
CONTINUOUS
 62
     0
100
AcDbLine
 10
93.80318500047
 20
1405.397970246
 11
90.26788908337
 21
1404.455224668
  0
LINE
  5
21E
100
AcDbEntity
  8
レイヤ1
  6
CONTINUOUS
 62
     0
100
AcDbLine
 10
90.26788908337
 20
1404.455224668
 11
90.0322026889
 21
1399.977183173
  0
LINE
  5
21F
100
AcDbEntity
  8
レイヤ1
  6
CONTINUOUS
 62
     0
100
AcDbLine
 10
116.8650343045
 20
1408.779361659
 11
116.6647652644
 21
1403.041106301
  0
LINE
  5
220
100
AcDbEntity
  8
レイヤ1
  6
CONTINUOUS
 62
     0
100
AcDbLine
 10
-67.64199521391
 20
1403.748165484
 11
-64.57807208575
 21
1402.098360723
  0
LINE
  5
221
100
AcDbEntity
  8
レイヤ1
  6
CONTINUOUS
 62
     0
100
AcDbLine
 10
-64.57807208575
 20
1402.098360723
 11
-60.10003059075
 21
1401.862674329
  0
LINE
  5
222
100
AcDbEntity
  8
レイヤ1
  6
CONTINUOUS
 62
     0
100
AcDbLine
 10
-60.10003059075
 20
1401.862674329
 11
-60.10003059075
 21
1395.263455283
  0
LINE
  5
223
100
AcDbEntity
  8
レイヤ1
  6
CONTINUOUS
 62
     0
100
AcDbLine
 10
-60.10003059075
 20
1395.263455283
 11
-56.24340267681
 21
1389.919298486
  0
LINE
  5
224
100
AcDbEntity
  8
レイヤ1
  6
CONTINUOUS
 62
     0
100
AcDbLine
 10
-41.42478161226
 20
1397.665395861
 11
-46.81337109028
 21
1393.28716691
  0
LINE
  5
225
100
AcDbEntity
  8
レイヤ1
  6
CONTINUOUS
 62
     0
100
AcDbLine
 10
-31.32117634098
 20
1392.276806383
 11
-27.95330791722
 21
1403.390772181
  0
LINE
  5
226
100
AcDbEntity
  8
レイヤ1
  6
CONTINUOUS
 62
     0
100
AcDbLine
 10
-55.23304214969
 20
1403.053985339
 11
-60.10003059075
 21
1401.862674329
  0
LINE
  5
227
100
AcDbEntity
  8
レイヤ1
  6
CONTINUOUS
 62
     0
100
AcDbLine
 10
90.0322026889
 20
1399.977183173
 11
97.33848091758
 21
1395.970514467
  0
LINE
  5
228
100
AcDbEntity
  8
レイヤ1
  6
CONTINUOUS
 62
     0
100
AcDbLine
 10
97.33848091758
 20
1395.970514467
 11
98.98828567889
 21
1391.021100183
  0
LINE
  5
229
100
AcDbEntity
  8
レイヤ1
  6
CONTINUOUS
 62
     0
100
AcDbLine
 10
116.6647652644
 20
1403.041106301
 11
114.7792741086
 21
1399.741496778
  0
LINE
  5
22A
100
AcDbEntity
  8
レイヤ1
  6
CONTINUOUS
 62
     0
100
AcDbLine
 10
-56.24340267681
 20
1389.919298486
 11
-51.86517372593
 21
1389.245724802
  0
LINE
  5
22B
100
AcDbEntity
  8
レイヤ1
  6
CONTINUOUS
 62
     0
100
AcDbLine
 10
-51.86517372593
 20
1389.245724802
 11
-45.80301056315
 21
1381.499627427
  0
LINE
  5
22C
100
AcDbEntity
  8
レイヤ1
  6
CONTINUOUS
 62
     0
100
AcDbLine
 10
-45.80301056315
 20
1381.499627427
 11
-35.69940529187
 21
1380.826053742
  0
LINE
  5
22D
100
AcDbEntity
  8
レイヤ1
  6
CONTINUOUS
 62
     0
100
AcDbLine
 10
-35.69940529187
 20
1380.826053742
 11
-35.69940529187
 21
1374.090316895
  0
LINE
  5
22E
100
AcDbEntity
  8
レイヤ1
  6
CONTINUOUS
 62
     0
100
AcDbLine
 10
-46.81337109028
 20
1393.28716691
 11
-51.86517372593
 21
1389.245724802
  0
LINE
  5
22F
100
AcDbEntity
  8
レイヤ1
  6
CONTINUOUS
 62
     0
100
AcDbLine
 10
-35.69940529187
 20
1380.826053742
 11
-31.65796318336
 21
1381.162840585
  0
LINE
  5
230
100
AcDbEntity
  8
レイヤ1
  6
CONTINUOUS
 62
     0
100
AcDbLine
 10
-31.65796318336
 20
1381.162840585
 11
-31.32117634098
 21
1392.276806383
  0
LINE
  5
231
100
AcDbEntity
  8
レイヤ1
  6
CONTINUOUS
 62
     0
100
AcDbLine
 10
9.093244744156
 20
1390.592872171
 11
17.51291580356
 21
1386.21464322
  0
LINE
  5
232
100
AcDbEntity
  8
レイヤ1
  6
CONTINUOUS
 62
     0
100
AcDbLine
 10
17.51291580356
 20
1386.21464322
 11
19.19685001544
 21
1382.509987954
  0
LINE
  5
233
100
AcDbEntity
  8
レイヤ1
  6
CONTINUOUS
 62
     0
100
AcDbLine
 10
19.19685001544
 20
1382.509987954
 11
18.86006317306
 21
1376.111037949
  0
LINE
  5
234
100
AcDbEntity
  8
レイヤ1
  6
CONTINUOUS
 62
     0
100
AcDbLine
 10
18.86006317306
 20
1376.111037949
 11
13.47147369505
 21
1379.815693215
  0
LINE
  5
235
100
AcDbEntity
  8
レイヤ1
  6
CONTINUOUS
 62
     0
100
AcDbLine
 10
13.47147369505
 20
1379.815693215
 11
14.81862106455
 21
1375.437464264
  0
LINE
  5
236
100
AcDbEntity
  8
レイヤ1
  6
CONTINUOUS
 62
     0
100
AcDbLine
 10
14.81862106455
 20
1375.437464264
 11
16.16576843405
 21
1363.649924781
  0
LINE
  5
237
100
AcDbEntity
  8
レイヤ1
  6
CONTINUOUS
 62
     0
100
AcDbLine
 10
-12.79790001029
 20
1359.27169583
 11
-30.31081581385
 21
1375.437464264
  0
LINE
  5
238
100
AcDbEntity
  8
レイヤ1
  6
CONTINUOUS
 62
     0
100
AcDbLine
 10
-30.31081581385
 20
1375.437464264
 11
-31.32117634098
 21
1380.826053742
  0
LINE
  5
239
100
AcDbEntity
  8
レイヤ1
  6
CONTINUOUS
 62
     0
100
AcDbLine
 10
98.98828567889
 20
1391.021100183
 11
104.6447591463
 21
1389.371295422
  0
LINE
  5
23A
100
AcDbEntity
  8
レイヤ1
  6
CONTINUOUS
 62
     0
100
AcDbLine
 10
104.6447591463
 20
1389.371295422
 11
103.4663271739
 21
1387.485804266
  0
LINE
  5
23B
100
AcDbEntity
  8
レイヤ1
  6
CONTINUOUS
 62
     0
100
AcDbLine
 10
103.4663271739
 20
1387.485804266
 11
97.33848091758
 21
1387.250117871
  0
LINE
  5
23C
100
AcDbEntity
  8
レイヤ1
  6
CONTINUOUS
 62
     0
100
AcDbLine
 10
97.33848091758
 20
1387.250117871
 11
98.28122649547
 21
1384.893253927
  0
LINE
  5
23D
100
AcDbEntity
  8
レイヤ1
  6
CONTINUOUS
 62
     0
100
AcDbLine
 10
98.28122649547
 20
1384.893253927
 11
103.9376999628
 21
1384.186194743
  0
LINE
  5
23E
100
AcDbEntity
  8
レイヤ1
  6
CONTINUOUS
 62
     0
100
AcDbLine
 10
103.9376999628
 20
1384.186194743
 11
103.9376999628
 21
1381.829330798
  0
LINE
  5
23F
100
AcDbEntity
  8
レイヤ1
  6
CONTINUOUS
 62
     0
100
AcDbLine
 10
103.9376999628
 20
1381.829330798
 11
108.8871142468
 21
1381.829330798
  0
LINE
  5
240
100
AcDbEntity
  8
レイヤ1
  6
CONTINUOUS
 62
     0
100
AcDbLine
 10
108.8871142468
 20
1381.829330798
 11
109.3584870357
 21
1378.76540767
  0
LINE
  5
241
100
AcDbEntity
  8
レイヤ1
  6
CONTINUOUS
 62
     0
100
AcDbLine
 10
109.3584870357
 20
1378.76540767
 11
115.2506468976
 21
1379.001094065
  0
LINE
  5
242
100
AcDbEntity
  8
レイヤ1
  6
CONTINUOUS
 62
     0
100
AcDbLine
 10
108.7821500875
 20
1365.670645835
 11
106.7614290332
 21
1375.774251107
  0
LINE
  5
243
100
AcDbEntity
  8
レイヤ1
  6
CONTINUOUS
 62
     0
100
AcDbLine
 10
106.7614290332
 20
1375.774251107
 11
103.9376999628
 21
1381.829330798
  0
LINE
  5
244
100
AcDbEntity
  8
レイヤ1
  6
CONTINUOUS
 62
     0
100
AcDbLine
 10
-35.69940529187
 20
1374.090316895
 11
-31.99475002573
 21
1361.965990569
  0
LINE
  5
245
100
AcDbEntity
  8
レイヤ1
  6
CONTINUOUS
 62
     0
100
AcDbLine
 10
117.2018211469
 20
1359.27169583
 11
112.823592196
 21
1357.587761618
  0
LINE
  5
246
100
AcDbEntity
  8
レイヤ1
  6
CONTINUOUS
 62
     0
100
AcDbLine
 10
112.823592196
 20
1357.587761618
 11
108.4453632451
 21
1345.800222135
  0
LINE
  5
247
100
AcDbEntity
  8
レイヤ1
  6
CONTINUOUS
 62
     0
100
AcDbLine
 10
108.4453632451
 20
1345.800222135
 11
101.7096263976
 21
1332.32874844
  0
LINE
  5
248
100
AcDbEntity
  8
レイヤ1
  6
CONTINUOUS
 62
     0
100
AcDbLine
 10
35.02583160712
 20
1348.157730032
 11
41.42478161226
 21
1344.116287923
  0
LINE
  5
249
100
AcDbEntity
  8
レイヤ1
  6
CONTINUOUS
 62
     0
100
AcDbLine
 10
41.42478161226
 20
1344.116287923
 11
51.86517372593
 21
1345.463435293
  0
LINE
  5
24A
100
AcDbEntity
  8
レイヤ1
  6
CONTINUOUS
 62
     0
100
AcDbLine
 10
51.86517372593
 20
1345.463435293
 11
59.2744842582
 21
1333.339108967
  0
LINE
  5
24B
100
AcDbEntity
  8
レイヤ1
  6
CONTINUOUS
 62
     0
100
AcDbLine
 10
104.0671342942
 20
1342.432353711
 11
107.0982158756
 21
1352.535958983
  0
LINE
  5
24C
100
AcDbEntity
  8
レイヤ1
  6
CONTINUOUS
 62
     0
100
AcDbLine
 10
107.0982158756
 20
1352.535958983
 11
108.7821500875
 21
1365.670645835
  0
LINE
  5
24D
100
AcDbEntity
  8
レイヤ1
  6
CONTINUOUS
 62
     0
100
AcDbLine
 10
101.7096263976
 20
1332.32874844
 11
97.3313974467
 21
1327.276945804
  0
LINE
  5
24E
100
AcDbEntity
  8
レイヤ1
  6
CONTINUOUS
 62
     0
100
AcDbLine
 10
97.3313974467
 20
1327.276945804
 11
92.61638165344
 21
1324.245864223
  0
LINE
  5
24F
100
AcDbEntity
  8
レイヤ1
  6
CONTINUOUS
 62
     0
100
AcDbLine
 10
92.61638165344
 20
1324.245864223
 11
87.5645790178
 21
1295.282195779
  0
LINE
  5
250
100
AcDbEntity
  8
レイヤ1
  6
CONTINUOUS
 62
     0
100
AcDbLine
 10
59.2744842582
 20
1333.339108967
 11
66.68379479048
 21
1327.276945804
  0
LINE
  5
251
100
AcDbEntity
  8
レイヤ1
  6
CONTINUOUS
 62
     0
100
AcDbLine
 10
66.68379479048
 20
1327.276945804
 11
76.45061321938
 21
1327.276945804
  0
LINE
  5
252
100
AcDbEntity
  8
レイヤ1
  6
CONTINUOUS
 62
     0
100
AcDbLine
 10
76.45061321938
 20
1327.276945804
 11
88.9117263873
 21
1328.960880016
  0
LINE
  5
253
100
AcDbEntity
  8
レイヤ1
  6
CONTINUOUS
 62
     0
100
AcDbLine
 10
88.9117263873
 20
1328.960880016
 11
95.31067639245
 21
1332.665535282
  0
LINE
  5
254
100
AcDbEntity
  8
レイヤ1
  6
CONTINUOUS
 62
     0
100
AcDbLine
 10
95.31067639245
 20
1332.665535282
 11
104.0671342942
 21
1342.432353711
  0
LINE
  5
255
100
AcDbEntity
  8
レイヤ1
  6
CONTINUOUS
 62
     0
100
AcDbLine
 10
33.37927062182
 20
1251.94818393
 11
41.49855266496
 21
1254.88014689
  0
LINE
  5
256
100
AcDbEntity
  8
レイヤ1
  6
CONTINUOUS
 62
     0
100
AcDbLine
 10
41.49855266496
 20
1254.88014689
 11
50.97104838196
 21
1258.7142523
  0
LINE
  5
257
100
AcDbEntity
  8
レイヤ1
  6
CONTINUOUS
 62
     0
100
AcDbLine
 10
50.97104838196
 20
1258.7142523
 11
62.02229338513
 21
1267.51014118
  0
LINE
  5
258
100
AcDbEntity
  8
レイヤ1
  6
CONTINUOUS
 62
     0
100
AcDbLine
 10
62.02229338513
 20
1267.51014118
 11
77.35871502218
 21
1280.816742306
  0
LINE
  5
259
100
AcDbEntity
  8
レイヤ1
  6
CONTINUOUS
 62
     0
100
AcDbLine
 10
77.35871502218
 20
1280.816742306
 11
79.61407114528
 21
1287.582810675
  0
LINE
  5
25A
100
AcDbEntity
  8
レイヤ1
  6
CONTINUOUS
 62
     0
100
AcDbLine
 10
79.61407114528
 20
1287.582810675
 11
84.57585461609
 21
1292.544594146
  0
LINE
  5
25B
100
AcDbEntity
  8
レイヤ1
  6
CONTINUOUS
 62
     0
100
AcDbLine
 10
84.57585461609
 20
1292.544594146
 11
87.5645790178
 21
1295.282195779
  0
LINE
  5
25C
100
AcDbEntity
  8
レイヤ1
  6
CONTINUOUS
 62
     0
100
AcDbLine
 10
87.5645790178
 20
1295.282195779
 11
89.08656686228
 21
1294.799950269
  0
LINE
  5
25D
100
AcDbEntity
  8
レイヤ1
  6
CONTINUOUS
 62
     0
100
AcDbLine
 10
89.08656686228
 20
1294.799950269
 11
89.5376380869
 21
1291.867987309
  0
LINE
  5
25E
100
AcDbEntity
  8
レイヤ1
  6
CONTINUOUS
 62
     0
100
AcDbLine
 10
89.5376380869
 20
1291.867987309
 11
93.59727910847
 21
1292.544594146
  0
LINE
  5
25F
100
AcDbEntity
  8
レイヤ1
  6
CONTINUOUS
 62
     0
100
AcDbLine
 10
93.59727910847
 20
1292.544594146
 11
94.95049278233
 21
1291.867987309
  0
LINE
  5
260
100
AcDbEntity
  8
レイヤ1
  6
CONTINUOUS
 62
     0
100
AcDbLine
 10
89.5376380869
 20
1291.867987309
 11
81.41835604375
 21
1281.944420368
  0
LINE
  5
261
100
AcDbEntity
  8
レイヤ1
  6
CONTINUOUS
 62
     0
100
AcDbLine
 10
81.41835604375
 20
1281.944420368
 11
71.94586032675
 21
1271.795317814
  0
LINE
  5
262
100
AcDbEntity
  8
レイヤ1
  6
CONTINUOUS
 62
     0
100
AcDbLine
 10
71.94586032675
 20
1271.795317814
 11
62.24782899744
 21
1263.450500158
  0
LINE
  5
263
100
AcDbEntity
  8
レイヤ1
  6
CONTINUOUS
 62
     0
100
AcDbLine
 10
62.24782899744
 20
1263.450500158
 11
53.22640450506
 21
1257.586574238
  0
LINE
  5
264
100
AcDbEntity
  8
レイヤ1
  6
CONTINUOUS
 62
     0
100
AcDbLine
 10
53.22640450506
 20
1257.586574238
 11
46.00926491115
 21
1253.978004441
  0
LINE
  5
265
100
AcDbEntity
  8
レイヤ1
  6
CONTINUOUS
 62
     0
100
AcDbLine
 10
46.00926491115
 20
1253.978004441
 11
40.59641021572
 21
1252.173719543
  0
LINE
  5
266
100
AcDbEntity
  8
レイヤ1
  6
CONTINUOUS
 62
     0
100
AcDbLine
 10
40.59641021572
 20
1252.173719543
 11
56.15836746508
 21
1255.78228934
  0
LINE
  5
267
100
AcDbEntity
  8
レイヤ1
  6
CONTINUOUS
 62
     0
100
AcDbLine
 10
56.15836746508
 20
1255.78228934
 11
68.3372905298
 21
1263.67603577
  0
LINE
  5
268
100
AcDbEntity
  8
レイヤ1
  6
CONTINUOUS
 62
     0
100
AcDbLine
 10
68.3372905298
 20
1263.67603577
 11
80.74174920682
 21
1274.727280774
  0
LINE
  5
269
100
AcDbEntity
  8
レイヤ1
  6
CONTINUOUS
 62
     0
100
AcDbLine
 10
80.74174920682
 20
1274.727280774
 11
94.95049278233
 21
1291.867987309
  0
LINE
  5
26A
100
AcDbEntity
  8
レイヤ1
  6
CONTINUOUS
 62
     0
100
AcDbLine
 10
94.95049278233
 20
1291.867987309
 11
99.0101338039
 21
1293.221200983
  0
LINE
  5
26B
100
AcDbEntity
  8
レイヤ1
  6
CONTINUOUS
 62
     0
100
AcDbLine
 10
99.0101338039
 20
1293.221200983
 11
104.197452887
 21
1292.770129758
  0
LINE
  5
26C
100
AcDbEntity
  8
レイヤ1
  6
CONTINUOUS
 62
     0
100
AcDbLine
 10
104.197452887
 20
1292.770129758
 11
115.6997691148
 21
1276.30603006
  0
LINE
  5
26D
100
AcDbEntity
  8
レイヤ1
  6
CONTINUOUS
 62
     0
100
AcDbLine
 10
-31.99475002573
 20
1361.965990569
 11
-28.96366844435
 21
1360.955630042
  0
LINE
  5
26E
100
AcDbEntity
  8
レイヤ1
  6
CONTINUOUS
 62
     0
100
AcDbLine
 10
-28.96366844435
 20
1360.955630042
 11
-23.57507896633
 21
1360.282056357
  0
LINE
  5
26F
100
AcDbEntity
  8
レイヤ1
  6
CONTINUOUS
 62
     0
100
AcDbLine
 10
-23.57507896633
 20
1360.282056357
 11
-21.2175710697
 21
1344.789861608
  0
LINE
  5
270
100
AcDbEntity
  8
レイヤ1
  6
CONTINUOUS
 62
     0
100
AcDbLine
 10
16.16576843405
 20
1363.649924781
 11
10.10360527128
 21
1358.934908988
  0
LINE
  5
271
100
AcDbEntity
  8
レイヤ1
  6
CONTINUOUS
 62
     0
100
AcDbLine
 10
10.10360527128
 20
1358.934908988
 11
-12.79790001029
 21
1359.27169583
  0
LINE
  5
272
100
AcDbEntity
  8
レイヤ1
  6
CONTINUOUS
 62
     0
100
AcDbLine
 10
-16.16576843405
 20
1362.976351096
 11
-10.77717895604
 21
1352.19917214
  0
LINE
  5
273
100
AcDbEntity
  8
レイヤ1
  6
CONTINUOUS
 62
     0
100
AcDbLine
 10
-10.77717895604
 20
1352.19917214
 11
-0.3367868423762
 21
1342.769140554
  0
LINE
  5
274
100
AcDbEntity
  8
レイヤ1
  6
CONTINUOUS
 62
     0
100
AcDbLine
 10
30.9843894986
 20
1344.453074766
 11
35.02583160712
 21
1348.157730032
  0
LINE
  5
275
100
AcDbEntity
  8
レイヤ1
  6
CONTINUOUS
 62
     0
100
AcDbLine
 10
-21.2175710697
 20
1344.789861608
 11
-16.83934211881
 21
1341.085206342
  0
LINE
  5
276
100
AcDbEntity
  8
レイヤ1
  6
CONTINUOUS
 62
     0
100
AcDbLine
 10
-16.83934211881
 20
1341.085206342
 11
-13.13468685267
 21
1329.971240543
  0
LINE
  5
277
100
AcDbEntity
  8
レイヤ1
  6
CONTINUOUS
 62
     0
100
AcDbLine
 10
-13.13468685267
 20
1329.971240543
 11
-9.766818428908
 21
1313.805472109
  0
LINE
  5
278
100
AcDbEntity
  8
レイヤ1
  6
CONTINUOUS
 62
     0
100
AcDbLine
 10
-0.3367868423762
 20
1342.769140554
 11
4.37822895089
 21
1339.064485288
  0
LINE
  5
279
100
AcDbEntity
  8
レイヤ1
  6
CONTINUOUS
 62
     0
100
AcDbLine
 10
4.37822895089
 20
1339.064485288
 11
7.072523689899
 21
1330.308027386
  0
LINE
  5
27A
100
AcDbEntity
  8
レイヤ1
  6
CONTINUOUS
 62
     0
100
AcDbLine
 10
7.072523689899
 20
1330.308027386
 11
24.92222633583
 21
1343.442714238
  0
LINE
  5
27B
100
AcDbEntity
  8
レイヤ1
  6
CONTINUOUS
 62
     0
100
AcDbLine
 10
24.92222633583
 20
1343.442714238
 11
30.9843894986
 21
1344.453074766
  0
LINE
  5
27C
100
AcDbEntity
  8
レイヤ1
  6
CONTINUOUS
 62
     0
100
AcDbLine
 10
-9.766818428908
 20
1313.805472109
 11
-12.46111316792
 21
1291.577540512
  0
LINE
  5
27D
100
AcDbEntity
  8
レイヤ1
  6
CONTINUOUS
 62
     0
100
AcDbLine
 10
-12.46111316792
 20
1291.577540512
 11
-15.82898159168
 21
1280.126787872
  0
LINE
  5
27E
100
AcDbEntity
  8
レイヤ1
  6
CONTINUOUS
 62
     0
100
AcDbLine
 10
-11.95338745241
 20
1293.672272208
 11
-15.33642163705
 21
1292.770129758
  0
LINE
  5
27F
100
AcDbEntity
  8
レイヤ1
  6
CONTINUOUS
 62
     0
100
AcDbLine
 10
-15.33642163705
 20
1292.770129758
 11
-16.01302847398
 21
1284.650847715
  0
LINE
  5
280
100
AcDbEntity
  8
レイヤ1
  6
CONTINUOUS
 62
     0
100
AcDbLine
 10
-16.01302847398
 20
1284.650847715
 11
-15.82898159168
 21
1280.126787872
  0
LINE
  5
281
100
AcDbEntity
  8
レイヤ1
  6
CONTINUOUS
 62
     0
100
AcDbLine
 10
-15.82898159168
 20
1280.126787872
 11
-12.17892306472
 21
1277.208172509
  0
LINE
  5
282
100
AcDbEntity
  8
レイヤ1
  6
CONTINUOUS
 62
     0
100
AcDbLine
 10
-12.17892306472
 20
1277.208172509
 11
-8.570353267763
 21
1269.765497303
  0
LINE
  5
283
100
AcDbEntity
  8
レイヤ1
  6
CONTINUOUS
 62
     0
100
AcDbLine
 10
-8.570353267763
 20
1269.765497303
 11
1.353213673857
 21
1260.067465974
  0
LINE
  5
284
100
AcDbEntity
  8
レイヤ1
  6
CONTINUOUS
 62
     0
100
AcDbLine
 10
1.353213673857
 20
1260.067465974
 11
7.442675206216
 21
1257.135503014
  0
LINE
  5
285
100
AcDbEntity
  8
レイヤ1
  6
CONTINUOUS
 62
     0
100
AcDbLine
 10
7.442675206216
 20
1257.135503014
 11
19.39606265862
 21
1253.075861992
  0
LINE
  5
286
100
AcDbEntity
  8
レイヤ1
  6
CONTINUOUS
 62
     0
100
AcDbLine
 10
19.39606265862
 20
1253.075861992
 11
33.37927062182
 21
1251.94818393
  0
LINE
  5
287
100
AcDbEntity
  8
レイヤ1
  6
CONTINUOUS
 62
     0
100
AcDbLine
 10
-11.95338745241
 20
1293.672272208
 11
-20.07266949555
 21
1295.702092718
  0
LINE
  5
288
100
AcDbEntity
  8
レイヤ1
  6
CONTINUOUS
 62
     0
100
AcDbLine
 10
-20.07266949555
 20
1295.702092718
 11
-26.61320225253
 21
1291.867987309
  0
LINE
  5
289
100
AcDbEntity
  8
レイヤ1
  6
CONTINUOUS
 62
     0
100
AcDbLine
 10
-26.61320225253
 20
1291.867987309
 11
-25.48552419098
 21
1281.944420368
  0
LINE
  5
28A
100
AcDbEntity
  8
レイヤ1
  6
CONTINUOUS
 62
     0
100
AcDbLine
 10
-25.48552419098
 20
1281.944420368
 11
-14.88535041243
 21
1268.863354854
  0
LINE
  5
28B
100
AcDbEntity
  8
レイヤ1
  6
CONTINUOUS
 62
     0
100
AcDbLine
 10
-14.88535041243
 20
1268.863354854
 11
-2.029820510786
 21
1259.165323524
  0
LINE
  5
28C
100
AcDbEntity
  8
レイヤ1
  6
CONTINUOUS
 62
     0
100
AcDbLine
 10
-2.029820510786
 20
1259.165323524
 11
10.14910255393
 21
1252.85032638
  0
LINE
  5
28D
100
AcDbEntity
  8
レイヤ1
  6
CONTINUOUS
 62
     0
100
AcDbLine
 10
10.14910255393
 20
1252.85032638
 11
18.49392020938
 21
1251.497112706
  0
LINE
  5
28E
100
AcDbEntity
  8
レイヤ1
  6
CONTINUOUS
 62
     0
100
AcDbLine
 10
-26.61320225253
 20
1291.867987309
 11
-29.54516521255
 21
1290.96584486
  0
LINE
  5
28F
100
AcDbEntity
  8
レイヤ1
  6
CONTINUOUS
 62
     0
100
AcDbLine
 10
-29.54516521255
 20
1290.96584486
 11
-31.12391449872
 21
1292.319058534
  0
LINE
  5
290
100
AcDbEntity
  8
レイヤ1
  6
CONTINUOUS
 62
     0
100
AcDbLine
 10
-31.12391449872
 20
1292.319058534
 11
-35.63462674491
 21
1292.319058534
  0
LINE
  5
291
100
AcDbEntity
  8
レイヤ1
  6
CONTINUOUS
 62
     0
100
AcDbLine
 10
-35.63462674491
 20
1292.319058534
 11
-38.11551848032
 21
1290.740309248
  0
LINE
  5
292
100
AcDbEntity
  8
レイヤ1
  6
CONTINUOUS
 62
     0
100
AcDbLine
 10
-29.54516521255
 20
1290.96584486
 11
-30.89837888641
 21
1289.612631186
  0
LINE
  5
293
100
AcDbEntity
  8
レイヤ1
  6
CONTINUOUS
 62
     0
100
AcDbLine
 10
-30.89837888641
 20
1289.612631186
 11
-30.6728432741
 21
1283.974240878
  0
LINE
  5
294
100
AcDbEntity
  8
レイヤ1
  6
CONTINUOUS
 62
     0
100
AcDbLine
 10
-30.6728432741
 20
1283.974240878
 11
-23.23016806789
 21
1273.599602712
  0
LINE
  5
295
100
AcDbEntity
  8
レイヤ1
  6
CONTINUOUS
 62
     0
100
AcDbLine
 10
-23.23016806789
 20
1273.599602712
 11
-17.14070653553
 21
1267.735676792
  0
LINE
  5
296
100
AcDbEntity
  8
レイヤ1
  6
CONTINUOUS
 62
     0
100
AcDbLine
 10
-17.14070653553
 20
1267.735676792
 11
-6.991603981597
 21
1260.067465974
  0
LINE
  5
297
100
AcDbEntity
  8
レイヤ1
  6
CONTINUOUS
 62
     0
100
AcDbLine
 10
-6.991603981597
 20
1260.067465974
 11
8.570353267763
 21
1252.85032638
  0
LINE
  5
298
100
AcDbEntity
  8
レイヤ1
  6
CONTINUOUS
 62
     0
100
AcDbLine
 10
8.570353267763
 20
1252.85032638
 11
18.49392020938
 21
1251.497112706
  0
LINE
  5
299
100
AcDbEntity
  8
レイヤ1
  6
CONTINUOUS
 62
     0
100
AcDbLine
 10
18.49392020938
 20
1251.497112706
 11
40.59641021572
 21
1252.173719543
  0
LINE
  5
29A
100
AcDbEntity
  8
レイヤ1
  6
CONTINUOUS
 62
     0
100
AcDbLine
 10
-38.11551848032
 20
1290.740309248
 11
-56.32904827918
 21
1272.942216552
  0
LINE
  5
29B
100
AcDbEntity
  8
レイヤ1
  6
CONTINUOUS
 62
     0
100
AcDbLine
 10
-56.32904827918
 20
1272.942216552
 11
-61.04277616865
 21
1271.999470974
  0
LINE
  5
29C
100
AcDbEntity
  8
レイヤ1
  6
CONTINUOUS
 62
     0
100
AcDbLine
 10
-61.04277616865
 20
1271.999470974
 11
-76.5980782039
 21
1259.508092067
  0
LINE
  5
29D
100
AcDbEntity
  8
レイヤ1
  6
CONTINUOUS
 62
     0
100
AcDbLine
 10
-76.5980782039
 20
1259.508092067
 11
-85.31847479942
 21
1258.0939737
  0
LINE
  5
29E
100
AcDbEntity
  8
レイヤ1
  6
CONTINUOUS
 62
     0
100
AcDbLine
 10
-85.31847479942
 20
1258.0939737
 11
-93.09612581705
 21
1255.030050572
  0
LINE
  5
29F
100
AcDbEntity
  8
レイヤ1
  6
CONTINUOUS
 62
     0
100
AcDbLine
 10
-93.09612581705
 20
1255.030050572
 11
-115.486333292
 21
1250.080636288
  0
LINE
  5
2A0
100
AcDbEntity
  8
レイヤ1
  6
CONTINUOUS
 62
     0
100
AcDbLine
 10
-115.486333292
 20
1250.080636288
 11
-130.0988897494
 21
1241.124553298
  0
LINE
  5
2A1
100
AcDbEntity
  8
レイヤ1
  6
CONTINUOUS
 62
     0
100
AcDbLine
 10
-130.0988897494
 20
1241.124553298
 11
-140.9404638952
 21
1230.282979152
  0
LINE
  5
2A2
100
AcDbEntity
  8
レイヤ1
  6
CONTINUOUS
 62
     0
100
AcDbLine
 10
-140.9404638952
 20
1230.282979152
 11
-143.5330142344
 21
1224.155132896
  0
LINE
  5
2A3
100
AcDbEntity
  8
レイヤ1
  6
CONTINUOUS
 62
     0
100
AcDbLine
 10
-143.5330142344
 20
1224.155132896
 11
-156.9671387194
 21
1202.471984604
  0
LINE
  5
2A4
100
AcDbEntity
  8
レイヤ1
  6
CONTINUOUS
 62
     0
100
AcDbLine
 10
-156.9671387194
 20
1202.471984604
 11
-160.0310618475
 21
1192.101783247
  0
LINE
  5
2A5
100
AcDbEntity
  8
レイヤ1
  6
CONTINUOUS
 62
     0
100
AcDbLine
 10
-160.0310618475
 20
1192.101783247
 11
-165.6875353149
 21
1170.890007745
  0
LINE
  5
2A6
100
AcDbEntity
  8
レイヤ1
  6
CONTINUOUS
 62
     0
100
AcDbLine
 10
-165.6875353149
 20
1170.890007745
 11
-182.656955717
 21
1140.015090069
  0
LINE
  5
2A7
100
AcDbEntity
  8
レイヤ1
  6
CONTINUOUS
 62
     0
100
AcDbLine
 10
-182.656955717
 20
1140.015090069
 11
-191.8487251015
 21
1100.419775797
  0
LINE
  5
2A8
100
AcDbEntity
  8
レイヤ1
  6
CONTINUOUS
 62
     0
100
AcDbLine
 10
-191.8487251015
 20
1100.419775797
 11
-200.097748908
 21
1077.793881928
  0
LINE
  5
2A9
100
AcDbEntity
  8
レイヤ1
  6
CONTINUOUS
 62
     0
100
AcDbLine
 10
-200.097748908
 20
1077.793881928
 11
-201.2761808804
 21
1037.020135684
  0
LINE
  5
2AA
100
AcDbEntity
  8
レイヤ1
  6
CONTINUOUS
 62
     0
100
AcDbLine
 10
-201.2761808804
 20
1037.020135684
 11
-199.8620625136
 21
1002.60992209
  0
LINE
  5
2AB
100
AcDbEntity
  8
レイヤ1
  6
CONTINUOUS
 62
     0
100
AcDbLine
 10
-199.8620625136
 20
1002.60992209
 11
-197.7408849633
 21
987.5259928442
  0
LINE
  5
2AC
100
AcDbEntity
  8
レイヤ1
  6
CONTINUOUS
 62
     0
100
AcDbLine
 10
-197.7408849633
 20
987.5259928442
 11
-198.6836305412
 21
957.593820746
  0
LINE
  5
2AD
100
AcDbEntity
  8
レイヤ1
  6
CONTINUOUS
 62
     0
100
AcDbLine
 10
-198.6836305412
 20
957.593820746
 11
-198.6836305412
 21
869.2114228185
  0
LINE
  5
2AE
100
AcDbEntity
  8
レイヤ1
  6
CONTINUOUS
 62
     0
100
AcDbLine
 10
-198.6836305412
 20
869.2114228185
 11
-194.6769618352
 21
833.6227772529
  0
LINE
  5
2AF
100
AcDbEntity
  8
レイヤ1
  6
CONTINUOUS
 62
     0
100
AcDbLine
 10
-194.6769618352
 20
833.6227772529
 11
-190.4346067346
 21
812.1753153559
  0
LINE
  5
2B0
100
AcDbEntity
  8
レイヤ1
  6
CONTINUOUS
 62
     0
100
AcDbLine
 10
-190.4346067346
 20
812.1753153559
 11
-193.2628434683
 21
795.4415813482
  0
LINE
  5
2B1
100
AcDbEntity
  8
レイヤ1
  6
CONTINUOUS
 62
     0
100
AcDbLine
 10
-193.2628434683
 20
795.4415813482
 11
-195.1483346241
 21
780.5933384964
  0
LINE
  5
2B2
100
AcDbEntity
  8
レイヤ1
  6
CONTINUOUS
 62
     0
100
AcDbLine
 10
-195.1483346241
 20
780.5933384964
 11
-198.6836305412
 21
767.8662731948
  0
LINE
  5
2B3
100
AcDbEntity
  8
レイヤ1
  6
CONTINUOUS
 62
     0
100
AcDbLine
 10
-198.6836305412
 20
767.8662731948
 11
-201.0404944859
 21
745.2403793254
  0
LINE
  5
2B4
100
AcDbEntity
  8
レイヤ1
  6
CONTINUOUS
 62
     0
100
AcDbLine
 10
-201.0404944859
 20
745.2403793254
 11
-214.7103053654
 21
699.281532403
  0
LINE
  5
2B5
100
AcDbEntity
  8
レイヤ1
  6
CONTINUOUS
 62
     0
100
AcDbLine
 10
-214.7103053654
 20
699.281532403
 11
-219.4240332549
 21
693.1536861467
  0
LINE
  5
2B6
100
AcDbEntity
  8
レイヤ1
  6
CONTINUOUS
 62
     0
100
AcDbLine
 10
-219.4240332549
 20
693.1536861467
 11
-227.2016842725
 21
657.5650405812
  0
LINE
  5
2B7
100
AcDbEntity
  8
レイヤ1
  6
CONTINUOUS
 62
     0
100
AcDbLine
 10
-227.2016842725
 20
657.5650405812
 11
-234.9793352901
 21
633.053655556
  0
LINE
  5
2B8
100
AcDbEntity
  8
レイヤ1
  6
CONTINUOUS
 62
     0
100
AcDbLine
 10
-234.9793352901
 20
633.053655556
 11
-245.5852230414
 21
594.4010868623
  0
LINE
  5
2B9
100
AcDbEntity
  8
レイヤ1
  6
CONTINUOUS
 62
     0
100
AcDbLine
 10
-245.5852230414
 20
594.4010868623
 11
-255.4840516093
 21
556.4555773521
  0
LINE
  5
2BA
100
AcDbEntity
  8
レイヤ1
  6
CONTINUOUS
 62
     0
100
AcDbLine
 10
-255.4840516093
 20
556.4555773521
 11
-271.2750400391
 21
510.7324168242
  0
LINE
  5
2BB
100
AcDbEntity
  8
レイヤ1
  6
CONTINUOUS
 62
     0
100
AcDbLine
 10
-271.2750400391
 20
510.7324168242
 11
-279.0526910567
 21
482.2143630929
  0
LINE
  5
2BC
100
AcDbEntity
  8
レイヤ1
  6
CONTINUOUS
 62
     0
100
AcDbLine
 10
-279.0526910567
 20
482.2143630929
 11
-292.4868155417
 21
423.2927644745
  0
LINE
  5
2BD
100
AcDbEntity
  8
レイヤ1
  6
CONTINUOUS
 62
     0
100
AcDbLine
 10
-292.4868155417
 20
423.2927644745
 11
-292.4868155417
 21
403.2594209442
  0
LINE
  5
2BE
100
AcDbEntity
  8
レイヤ1
  6
CONTINUOUS
 62
     0
100
AcDbLine
 10
-292.4868155417
 20
403.2594209442
 11
-285.8875964964
 21
371.9131304793
  0
LINE
  5
2BF
100
AcDbEntity
  8
レイヤ1
  6
CONTINUOUS
 62
     0
100
AcDbLine
 10
-285.8875964964
 20
371.9131304793
 11
-282.8236733683
 21
327.6040883182
  0
LINE
  5
2C0
100
AcDbEntity
  8
レイヤ1
  6
CONTINUOUS
 62
     0
100
AcDbLine
 10
-282.8236733683
 20
327.6040883182
 11
-279.7597502401
 21
299.3217209814
  0
LINE
  5
2C1
100
AcDbEntity
  8
レイヤ1
  6
CONTINUOUS
 62
     0
100
AcDbLine
 10
-279.7597502401
 20
299.3217209814
 11
-269.3895488833
 21
267.268371333
  0
LINE
  5
2C2
100
AcDbEntity
  8
レイヤ1
  6
CONTINUOUS
 62
     0
100
AcDbLine
 10
-269.3895488833
 20
267.268371333
 11
-257.3695427651
 21
240.871495152
  0
LINE
  5
2C3
100
AcDbEntity
  8
レイヤ1
  6
CONTINUOUS
 62
     0
100
AcDbLine
 10
-257.3695427651
 20
240.871495152
 11
-235.2150216846
 21
218.9526604659
  0
LINE
  5
2C4
100
AcDbEntity
  8
レイヤ1
  6
CONTINUOUS
 62
     0
100
AcDbLine
 10
-235.2150216846
 20
218.9526604659
 11
-213.7675597875
 21
209.525204687
  0
LINE
  5
2C5
100
AcDbEntity
  8
レイヤ1
  6
CONTINUOUS
 62
     0
100
AcDbLine
 10
-213.7675597875
 20
209.525204687
 11
-193.4985298628
 21
206.9326543478
  0
LINE
  5
2C6
100
AcDbEntity
  8
レイヤ1
  6
CONTINUOUS
 62
     0
100
AcDbLine
 10
-193.4985298628
 20
206.9326543478
 11
-167.3373400762
 21
206.2255951644
  0
LINE
  5
2C7
100
AcDbEntity
  8
レイヤ1
  6
CONTINUOUS
 62
     0
100
AcDbLine
 10
-167.3373400762
 20
206.2255951644
 11
-159.3240026641
 21
208.3467727146
  0
LINE
  5
2C8
100
AcDbEntity
  8
レイヤ1
  6
CONTINUOUS
 62
     0
100
AcDbLine
 10
-159.3240026641
 20
208.3467727146
 11
-118.3145700257
 21
221.3095244107
  0
LINE
  5
2C9
100
AcDbEntity
  8
レイヤ1
  6
CONTINUOUS
 62
     0
100
AcDbLine
 10
-118.3145700257
 20
221.3095244107
 11
-97.80985370652
 21
221.3095244107
  0
LINE
  5
2CA
100
AcDbEntity
  8
レイヤ1
  6
CONTINUOUS
 62
     0
100
AcDbLine
 10
-97.80985370652
 20
221.3095244107
 11
-96.63142173416
 21
226.4946250891
  0
LINE
  5
2CB
100
AcDbEntity
  8
レイヤ1
  6
CONTINUOUS
 62
     0
100
AcDbLine
 10
-96.63142173416
 20
226.4946250891
 11
-103.4663271739
 21
278.5813182677
  0
LINE
  5
2CC
100
AcDbEntity
  8
レイヤ1
  6
CONTINUOUS
 62
     0
100
AcDbLine
 10
-103.4663271739
 20
278.5813182677
 11
-103.9376999628
 21
292.9581883306
  0
LINE
  5
2CD
100
AcDbEntity
  8
レイヤ1
  6
CONTINUOUS
 62
     0
100
AcDbLine
 10
-103.9376999628
 20
292.9581883306
 11
-108.4453632451
 21
338.8075634304
  0
LINE
  5
2CE
100
AcDbEntity
  8
レイヤ1
  6
CONTINUOUS
 62
     0
100
AcDbLine
 10
-108.4453632451
 20
338.8075634304
 11
-113.4971658808
 21
403.807424009
  0
LINE
  5
2CF
100
AcDbEntity
  8
レイヤ1
  6
CONTINUOUS
 62
     0
100
AcDbLine
 10
-113.4971658808
 20
403.807424009
 11
-114.8443132503
 21
471.5015793266
  0
LINE
  5
2D0
100
AcDbEntity
  8
レイヤ1
  6
CONTINUOUS
 62
     0
100
AcDbLine
 10
-114.8443132503
 20
471.5015793266
 11
-120.2329027283
 21
531.1128504272
  0
LINE
  5
2D1
100
AcDbEntity
  8
レイヤ1
  6
CONTINUOUS
 62
     0
100
AcDbLine
 10
-120.2329027283
 20
531.1128504272
 11
-122.5904106249
 21
597.1230715329
  0
LINE
  5
2D2
100
AcDbEntity
  8
レイヤ1
  6
CONTINUOUS
 62
     0
100
AcDbLine
 10
-122.5904106249
 20
597.1230715329
 11
-121.9168369402
 21
662.1229321115
  0
LINE
  5
2D3
100
AcDbEntity
  8
レイヤ1
  6
CONTINUOUS
 62
     0
100
AcDbLine
 10
-121.9168369402
 20
662.1229321115
 11
-119.8961158859
 21
735.2056769071
  0
LINE
  5
2D4
100
AcDbEntity
  8
レイヤ1
  6
CONTINUOUS
 62
     0
100
AcDbLine
 10
-119.8961158859
 20
735.2056769071
 11
-118.8857553588
 21
834.8945822504
  0
LINE
  5
2D5
100
AcDbEntity
  8
レイヤ1
  6
CONTINUOUS
 62
     0
100
AcDbLine
 10
-118.8857553588
 20
834.8945822504
 11
-124.2743448368
 21
853.4178585811
  0
LINE
  5
2D6
100
AcDbEntity
  8
レイヤ1
  6
CONTINUOUS
 62
     0
100
AcDbLine
 10
-124.2743448368
 20
853.4178585811
 11
-131.0100816843
 21
862.8478901677
  0
LINE
  5
2D7
100
AcDbEntity
  8
レイヤ1
  6
CONTINUOUS
 62
     0
100
AcDbLine
 10
-131.0100816843
 20
862.8478901677
 11
-129.9997211572
 21
871.6043480694
  0
LINE
  5
2D8
100
AcDbEntity
  8
レイヤ1
  6
CONTINUOUS
 62
     0
100
AcDbLine
 10
-129.9997211572
 20
871.6043480694
 11
-123.9375579944
 21
893.8322796663
  0
LINE
  5
2D9
100
AcDbEntity
  8
レイヤ1
  6
CONTINUOUS
 62
     0
100
AcDbLine
 10
-123.9375579944
 20
893.8322796663
 11
-117.5386079893
 21
902.588737568
  0
LINE
  5
2DA
100
AcDbEntity
  8
レイヤ1
  6
CONTINUOUS
 62
     0
100
AcDbLine
 10
-117.5386079893
 20
902.588737568
 11
-114.8443132503
 21
902.2519507257
  0
LINE
  5
2DB
100
AcDbEntity
  8
レイヤ1
  6
CONTINUOUS
 62
     0
100
AcDbLine
 10
-114.8443132503
 20
902.2519507257
 11
-91.60602112631
 21
883.3918875526
  0
LINE
  5
2DC
100
AcDbEntity
  8
レイヤ1
  6
CONTINUOUS
 62
     0
100
AcDbLine
 10
-91.60602112631
 20
883.3918875526
 11
-66.3470079481
 21
872.6147085966
  0
LINE
  5
2DD
100
AcDbEntity
  8
レイヤ1
  6
CONTINUOUS
 62
     0
100
AcDbLine
 10
-66.3470079481
 20
872.6147085966
 11
-29.6372421291
 21
865.5421849067
  0
LINE
  5
2DE
100
AcDbEntity
  8
レイヤ1
  6
CONTINUOUS
 62
     0
100
AcDbLine
 10
-29.6372421291
 20
865.5421849067
 11
-3.367868423761
 21
861.8375296405
  0
LINE
  5
2DF
100
AcDbEntity
  8
レイヤ1
  6
CONTINUOUS
 62
     0
100
AcDbLine
 10
-3.367868423761
 20
861.8375296405
 11
29.97402897148
 21
860.490382271
  0
LINE
  5
2E0
100
AcDbEntity
  8
レイヤ1
  6
CONTINUOUS
 62
     0
100
AcDbLine
 10
-118.8857553588
 20
834.8945822504
 11
-79.48169480077
 21
826.1381243487
  0
LINE
  5
2E1
100
AcDbEntity
  8
レイヤ1
  6
CONTINUOUS
 62
     0
100
AcDbLine
 10
-79.48169480077
 20
826.1381243487
 11
-54.89625530731
 21
823.780616452
  0
LINE
  5
2E2
100
AcDbEntity
  8
レイヤ1
  6
CONTINUOUS
 62
     0
100
AcDbLine
 10
-54.89625530731
 20
823.780616452
 11
-17.84970264594
 21
822.7702559249
  0
LINE
  5
2E3
100
AcDbEntity
  8
レイヤ1
  6
CONTINUOUS
 62
     0
100
AcDbLine
 10
-17.84970264594
 20
822.7702559249
 11
15.82898159168
 21
822.4334690825
  0
LINE
  5
2E4
100
AcDbEntity
  8
レイヤ1
  6
CONTINUOUS
 62
     0
100
AcDbLine
 10
-114.8443132503
 20
902.2519507257
 11
-114.8443132503
 21
907.3037533613
  0
LINE
  5
2E5
100
AcDbEntity
  8
レイヤ1
  6
CONTINUOUS
 62
     0
100
AcDbLine
 10
-114.8443132503
 20
907.3037533613
 11
-117.5386079893
 21
909.9980481003
  0
LINE
  5
2E6
100
AcDbEntity
  8
レイヤ1
  6
CONTINUOUS
 62
     0
100
AcDbLine
 10
-117.5386079893
 20
909.9980481003
 11
-115.8546737774
 21
946.0342402346
  0
LINE
  5
2E7
100
AcDbEntity
  8
レイヤ1
  6
CONTINUOUS
 62
     0
100
AcDbLine
 10
-115.8546737774
 20
946.0342402346
 11
-112.823592196
 21
955.1274849787
  0
LINE
  5
2E8
100
AcDbEntity
  8
レイヤ1
  6
CONTINUOUS
 62
     0
100
AcDbLine
 10
-112.823592196
 20
955.1274849787
 11
-97.66818428908
 21
980.3864981569
  0
LINE
  5
2E9
100
AcDbEntity
  8
レイヤ1
  6
CONTINUOUS
 62
     0
100
AcDbLine
 10
-113.8339527231
 20
971.2932534128
 11
-114.3391329867
 21
950.5808626066
  0
LINE
  5
2EA
100
AcDbEntity
  8
レイヤ1
  6
CONTINUOUS
 62
     0
100
AcDbLine
 10
-76.5980782039
 20
1259.508092067
 11
-75.10346584988
 21
1250.826332585
  0
LINE
  5
2EB
100
AcDbEntity
  8
レイヤ1
  6
CONTINUOUS
 62
     0
100
AcDbLine
 10
-75.10346584988
 20
1250.826332585
 11
-58.26412373107
 21
1228.598400988
  0
LINE
  5
2EC
100
AcDbEntity
  8
レイヤ1
  6
CONTINUOUS
 62
     0
100
AcDbLine
 10
-58.26412373107
 20
1228.598400988
 11
-36.709765819
 21
1217.821222032
  0
LINE
  5
2ED
100
AcDbEntity
  8
レイヤ1
  6
CONTINUOUS
 62
     0
100
AcDbLine
 10
-36.709765819
 20
1217.821222032
 11
-6.127846256312
 21
1210.249635622
  0
LINE
  5
2EE
100
AcDbEntity
  8
レイヤ1
  6
CONTINUOUS
 62
     0
100
AcDbLine
 10
-6.127846256312
 20
1210.249635622
 11
29.22511291472
 21
1207.185712494
  0
LINE
  5
2EF
100
AcDbEntity
  8
レイヤ1
  6
CONTINUOUS
 62
     0
100
AcDbLine
 10
29.22511291472
 20
1207.185712494
 11
62.69258092996
 21
1209.071203649
  0
LINE
  5
2F0
100
AcDbEntity
  8
レイヤ1
  6
CONTINUOUS
 62
     0
100
AcDbLine
 10
62.69258092996
 20
1209.071203649
 11
90.73926187232
 21
1216.377481878
  0
LINE
  5
2F1
100
AcDbEntity
  8
レイヤ1
  6
CONTINUOUS
 62
     0
100
AcDbLine
 10
90.73926187232
 20
1216.377481878
 11
119.8326232845
 21
1233.457885454
  0
LINE
  5
2F2
100
AcDbEntity
  8
レイヤ1
  6
CONTINUOUS
 62
     0
100
AcDbLine
 10
119.8326232845
 20
1233.457885454
 11
136.6765663164
 21
1248.858061941
  0
LINE
  5
2F3
100
AcDbEntity
  8
レイヤ1
  6
CONTINUOUS
 62
     0
100
AcDbLine
 10
136.6765663164
 20
1248.858061941
 11
143.8953990444
 21
1259.445683275
  0
LINE
  5
2F4
100
AcDbEntity
  8
レイヤ1
  6
CONTINUOUS
 62
     0
100
AcDbLine
 10
136.7354580047
 20
1265.308166807
 11
143.8953990444
 21
1259.445683275
  0
LINE
  5
2F5
100
AcDbEntity
  8
レイヤ1
  6
CONTINUOUS
 62
     0
100
AcDbLine
 10
143.8953990444
 20
1259.445683275
 11
159.0883162696
 21
1253.144559416
  0
LINE
  5
2F6
100
AcDbEntity
  8
レイヤ1
  6
CONTINUOUS
 62
     0
100
AcDbLine
 10
159.0883162696
 20
1253.144559416
 11
181.4785237446
 21
1248.902204315
  0
LINE
  5
2F7
100
AcDbEntity
  8
レイヤ1
  6
CONTINUOUS
 62
     0
100
AcDbLine
 10
181.4785237446
 20
1248.902204315
 11
199.3778106867
 21
1240.722727314
  0
LINE
  5
2F8
100
AcDbEntity
  8
レイヤ1
  6
CONTINUOUS
 62
     0
100
AcDbLine
 10
199.3778106867
 20
1240.722727314
 11
215.8803659631
 21
1228.935187831
  0
LINE
  5
2F9
100
AcDbEntity
  8
レイヤ1
  6
CONTINUOUS
 62
     0
100
AcDbLine
 10
215.8803659631
 20
1228.935187831
 11
250.2326238855
 21
1161.914606198
  0
LINE
  5
2FA
100
AcDbEntity
  8
レイヤ1
  6
CONTINUOUS
 62
     0
100
AcDbLine
 10
250.2326238855
 20
1161.914606198
 11
257.6419344177
 21
1141.370608813
  0
LINE
  5
2FB
100
AcDbEntity
  8
レイヤ1
  6
CONTINUOUS
 62
     0
100
AcDbLine
 10
257.6419344177
 20
1141.370608813
 11
259.3258686296
 21
1122.847332482
  0
LINE
  5
2FC
100
AcDbEntity
  8
レイヤ1
  6
CONTINUOUS
 62
     0
100
AcDbLine
 10
259.3258686296
 20
1122.847332482
 11
283.5745212807
 21
1073.00287981
  0
LINE
  5
2FD
100
AcDbEntity
  8
レイヤ1
  6
CONTINUOUS
 62
     0
100
AcDbLine
 10
283.5745212807
 20
1073.00287981
 11
284.9216686502
 21
1066.267142963
  0
LINE
  5
2FE
100
AcDbEntity
  8
レイヤ1
  6
CONTINUOUS
 62
     0
100
AcDbLine
 10
284.9216686502
 20
1066.267142963
 11
284.9216686502
 21
1046.733506105
  0
LINE
  5
2FF
100
AcDbEntity
  8
レイヤ1
  6
CONTINUOUS
 62
     0
100
AcDbLine
 10
284.9216686502
 20
1046.733506105
 11
275.1548502213
 21
999.24656133
  0
LINE
  5
300
100
AcDbEntity
  8
レイヤ1
  6
CONTINUOUS
 62
     0
100
AcDbLine
 10
275.1548502213
 20
999.24656133
 11
273.4709160094
 21
926.8373902191
  0
LINE
  5
301
100
AcDbEntity
  8
レイヤ1
  6
CONTINUOUS
 62
     0
100
AcDbLine
 10
273.4709160094
 20
926.8373902191
 11
265.3880317924
 21
860.1535954287
  0
LINE
  5
302
100
AcDbEntity
  8
レイヤ1
  6
CONTINUOUS
 62
     0
100
AcDbLine
 10
265.3880317924
 20
860.1535954287
 11
252.2533449397
 21
779.6615401008
  0
LINE
  5
303
100
AcDbEntity
  8
レイヤ1
  6
CONTINUOUS
 62
     0
100
AcDbLine
 10
252.2533449397
 20
779.6615401008
 11
249.8958370431
 21
778.3143927313
  0
LINE
  5
304
100
AcDbEntity
  8
レイヤ1
  6
CONTINUOUS
 62
     0
100
AcDbLine
 10
249.8958370431
 20
778.3143927313
 11
235.0772159785
 21
774.6097374651
  0
LINE
  5
305
100
AcDbEntity
  8
レイヤ1
  6
CONTINUOUS
 62
     0
100
AcDbLine
 10
235.0772159785
 20
774.6097374651
 11
243.4442857785
 21
728.2697701678
  0
LINE
  5
306
100
AcDbEntity
  8
レイヤ1
  6
CONTINUOUS
 62
     0
100
AcDbLine
 10
243.4442857785
 20
728.2697701678
 11
251.2153789337
 21
672.7952102478
  0
LINE
  5
307
100
AcDbEntity
  8
レイヤ1
  6
CONTINUOUS
 62
     0
100
AcDbLine
 10
251.2153789337
 20
672.7952102478
 11
258.9154671769
 21
638.6260686687
  0
LINE
  5
308
100
AcDbEntity
  8
レイヤ1
  6
CONTINUOUS
 62
     0
100
AcDbLine
 10
258.9154671769
 20
638.6260686687
 11
272.8718771177
 21
593.38805024
  0
LINE
  5
309
100
AcDbEntity
  8
レイヤ1
  6
CONTINUOUS
 62
     0
100
AcDbLine
 10
272.8718771177
 20
593.38805024
 11
247.8465903273
 21
525.531022597
  0
LINE
  5
30A
100
AcDbEntity
  8
レイヤ1
  6
CONTINUOUS
 62
     0
100
AcDbLine
 10
247.8465903273
 20
525.531022597
 11
241.1090131145
 21
488.4743479267
  0
LINE
  5
30B
100
AcDbEntity
  8
レイヤ1
  6
CONTINUOUS
 62
     0
100
AcDbLine
 10
241.1090131145
 20
488.4743479267
 11
241.5902686297
 21
464.4115721667
  0
LINE
  5
30C
100
AcDbEntity
  8
レイヤ1
  6
CONTINUOUS
 62
     0
100
AcDbLine
 10
241.5902686297
 20
464.4115721667
 11
233.4089248714
 21
435.5362412548
  0
LINE
  5
30D
100
AcDbEntity
  8
レイヤ1
  6
CONTINUOUS
 62
     0
100
AcDbLine
 10
233.4089248714
 20
435.5362412548
 11
232.446413841
 21
407.1421658581
  0
LINE
  5
30E
100
AcDbEntity
  8
レイヤ1
  6
CONTINUOUS
 62
     0
100
AcDbLine
 10
232.446413841
 20
407.1421658581
 11
227.1526031738
 21
363.347913975
  0
LINE
  5
30F
100
AcDbEntity
  8
レイヤ1
  6
CONTINUOUS
 62
     0
100
AcDbLine
 10
227.1526031738
 20
363.347913975
 11
227.1526031738
 21
310.4098073032
  0
LINE
  5
310
100
AcDbEntity
  8
レイヤ1
  6
CONTINUOUS
 62
     0
100
AcDbLine
 10
227.1526031738
 20
310.4098073032
 11
217.9010870174
 21
258.9890817872
  0
LINE
  5
311
100
AcDbEntity
  8
レイヤ1
  6
CONTINUOUS
 62
     0
100
AcDbLine
 10
217.9010870174
 20
258.9890817872
 11
208.1342685885
 21
212.8492843817
  0
LINE
  5
312
100
AcDbEntity
  8
レイヤ1
  6
CONTINUOUS
 62
     0
100
AcDbLine
 10
208.1342685885
 20
212.8492843817
 11
196.3467291053
 21
183.2120422526
  0
LINE
  5
313
100
AcDbEntity
  8
レイヤ1
  6
CONTINUOUS
 62
     0
100
AcDbLine
 10
196.3467291053
 20
183.2120422526
 11
191.9685001544
 21
180.1809606712
  0
LINE
  5
314
100
AcDbEntity
  8
レイヤ1
  6
CONTINUOUS
 62
     0
100
AcDbLine
 10
191.9685001544
 20
180.1809606712
 11
184.8959764645
 21
180.854534356
  0
LINE
  5
315
100
AcDbEntity
  8
レイヤ1
  6
CONTINUOUS
 62
     0
100
AcDbLine
 10
184.8959764645
 20
180.854534356
 11
167.0462738186
 21
186.9166975188
  0
LINE
  5
316
100
AcDbEntity
  8
レイヤ1
  6
CONTINUOUS
 62
     0
100
AcDbLine
 10
167.0462738186
 20
186.9166975188
 11
149.533358015
 21
203.4192527952
  0
LINE
  5
317
100
AcDbEntity
  8
レイヤ1
  6
CONTINUOUS
 62
     0
100
AcDbLine
 10
149.533358015
 20
203.4192527952
 11
133.7043764233
 21
218.9114475445
  0
LINE
  5
318
100
AcDbEntity
  8
レイヤ1
  6
CONTINUOUS
 62
     0
100
AcDbLine
 10
133.7043764233
 20
218.9114475445
 11
112.4868053536
 21
231.7093475548
  0
LINE
  5
319
100
AcDbEntity
  8
レイヤ1
  6
CONTINUOUS
 62
     0
100
AcDbLine
 10
112.4868053536
 20
231.7093475548
 11
111.8132316689
 21
237.4347238752
  0
LINE
  5
31A
100
AcDbEntity
  8
レイヤ1
  6
CONTINUOUS
 62
     0
100
AcDbLine
 10
111.8132316689
 20
237.4347238752
 11
123.600771152
 21
298.0563555029
  0
LINE
  5
31B
100
AcDbEntity
  8
レイヤ1
  6
CONTINUOUS
 62
     0
100
AcDbLine
 10
123.600771152
 20
298.0563555029
 11
128.6525737877
 21
334.7661213219
  0
LINE
  5
31C
100
AcDbEntity
  8
レイヤ1
  6
CONTINUOUS
 62
     0
100
AcDbLine
 10
128.6525737877
 20
334.7661213219
 11
132.3572290538
 21
393.3670318953
  0
LINE
  5
31D
100
AcDbEntity
  8
レイヤ1
  6
CONTINUOUS
 62
     0
100
AcDbLine
 10
132.3572290538
 20
393.3670318953
 11
134.7147369505
 21
426.7089292906
  0
LINE
  5
31E
100
AcDbEntity
  8
レイヤ1
  6
CONTINUOUS
 62
     0
100
AcDbLine
 10
134.7147369505
 20
426.7089292906
 11
139.7665395861
 21
458.3668924739
  0
LINE
  5
31F
100
AcDbEntity
  8
レイヤ1
  6
CONTINUOUS
 62
     0
100
AcDbLine
 10
139.7665395861
 20
458.3668924739
 11
143.4711948522
 21
502.1491819828
  0
LINE
  5
320
100
AcDbEntity
  8
レイヤ1
  6
CONTINUOUS
 62
     0
100
AcDbLine
 10
143.4711948522
 20
502.1491819828
 11
150.2069316998
 21
536.8382267476
  0
LINE
  5
321
100
AcDbEntity
  8
レイヤ1
  6
CONTINUOUS
 62
     0
100
AcDbLine
 10
150.2069316998
 20
536.8382267476
 11
154.921947493
 21
588.7034004735
  0
LINE
  5
322
100
AcDbEntity
  8
レイヤ1
  6
CONTINUOUS
 62
     0
100
AcDbLine
 10
154.921947493
 20
588.7034004735
 11
159.9737501287
 21
636.1903452485
  0
LINE
  5
323
100
AcDbEntity
  8
レイヤ1
  6
CONTINUOUS
 62
     0
100
AcDbLine
 10
159.9737501287
 20
636.1903452485
 11
168.7302080304
 21
703.8845005661
  0
LINE
  5
324
100
AcDbEntity
  8
レイヤ1
  6
CONTINUOUS
 62
     0
100
AcDbLine
 10
168.7302080304
 20
703.8845005661
 11
176.1395185627
 21
761.8118374548
  0
LINE
  5
325
100
AcDbEntity
  8
レイヤ1
  6
CONTINUOUS
 62
     0
100
AcDbLine
 10
205.977360505
 20
777.7089125611
 11
211.5021370122
 21
708.5995163594
  0
LINE
  5
326
100
AcDbEntity
  8
レイヤ1
  6
CONTINUOUS
 62
     0
100
AcDbLine
 10
211.5021370122
 20
708.5995163594
 11
216.5539396479
 21
635.8535584061
  0
LINE
  5
327
100
AcDbEntity
  8
レイヤ1
  6
CONTINUOUS
 62
     0
100
AcDbLine
 10
216.5539396479
 20
635.8535584061
 11
218.2378738597
 21
565.4651083495
  0
LINE
  5
328
100
AcDbEntity
  8
レイヤ1
  6
CONTINUOUS
 62
     0
100
AcDbLine
 10
218.2378738597
 20
565.4651083495
 11
219.2482343869
 21
505.853837249
  0
LINE
  5
329
100
AcDbEntity
  8
レイヤ1
  6
CONTINUOUS
 62
     0
100
AcDbLine
 10
219.2482343869
 20
505.853837249
 11
219.5850212292
 21
435.12860035
  0
LINE
  5
32A
100
AcDbEntity
  8
レイヤ1
  6
CONTINUOUS
 62
     0
100
AcDbLine
 10
219.5850212292
 20
435.12860035
 11
220.0626312122
 21
385.7973003438
  0
LINE
  5
32B
100
AcDbEntity
  8
レイヤ1
  6
CONTINUOUS
 62
     0
100
AcDbLine
 10
184.8959764645
 20
180.854534356
 11
188.6521619579
 21
147.745443166
  0
LINE
  5
32C
100
AcDbEntity
  8
レイヤ1
  6
CONTINUOUS
 62
     0
100
AcDbLine
 10
188.6521619579
 20
147.745443166
 11
192.0209505643
 21
133.30777771
  0
LINE
  5
32D
100
AcDbEntity
  8
レイヤ1
  6
CONTINUOUS
 62
     0
100
AcDbLine
 10
192.0209505643
 20
133.30777771
 11
192.9834615947
 21
123.2014118909
  0
LINE
  5
32E
100
AcDbEntity
  8
レイヤ1
  6
CONTINUOUS
 62
     0
100
AcDbLine
 10
192.9834615947
 20
123.2014118909
 11
189.6146729883
 21
121.7576453453
  0
LINE
  5
32F
100
AcDbEntity
  8
レイヤ1
  6
CONTINUOUS
 62
     0
100
AcDbLine
 10
189.6146729883
 20
121.7576453453
 11
164.1081306828
 21
126.5702004973
  0
LINE
  5
330
100
AcDbEntity
  8
レイヤ1
  6
CONTINUOUS
 62
     0
100
AcDbLine
 10
164.1081306828
 20
126.5702004973
 11
127.0514560125
 21
128.495222558
  0
LINE
  5
331
100
AcDbEntity
  8
レイヤ1
  6
CONTINUOUS
 62
     0
100
AcDbLine
 10
138.756179059
 20
214.1964317512
 11
133.3675895809
 21
172.4348632966
  0
LINE
  5
332
100
AcDbEntity
  8
レイヤ1
  6
CONTINUOUS
 62
     0
100
AcDbLine
 10
133.3675895809
 20
172.4348632966
 11
127.0514560125
 21
128.495222558
  0
LINE
  5
333
100
AcDbEntity
  8
レイヤ1
  6
CONTINUOUS
 62
     0
100
AcDbLine
 10
127.0514560125
 20
128.495222558
 11
118.212181674
 21
74.7666790075
  0
LINE
  5
334
100
AcDbEntity
  8
レイヤ1
  6
CONTINUOUS
 62
     0
100
AcDbLine
 10
118.212181674
 20
74.7666790075
 11
110.4660842994
 21
60.95841847008
  0
LINE
  5
335
100
AcDbEntity
  8
レイヤ1
  6
CONTINUOUS
 62
     0
100
AcDbLine
 10
110.4660842994
 20
60.95841847008
 11
81.50241585502
 21
42.09835529702
  0
LINE
  5
336
100
AcDbEntity
  8
レイヤ1
  6
CONTINUOUS
 62
     0
100
AcDbLine
 10
81.50241585502
 20
42.09835529702
 11
35.36261844949
 21
21.89114475445
  0
LINE
  5
337
100
AcDbEntity
  8
レイヤ1
  6
CONTINUOUS
 62
     0
100
AcDbLine
 10
35.36261844949
 20
21.89114475445
 11
27.27973423247
 21
20.88078422732
  0
LINE
  5
338
100
AcDbEntity
  8
レイヤ1
  6
CONTINUOUS
 62
     0
100
AcDbLine
 10
27.27973423247
 20
20.88078422732
 11
-58.60091057345
 21
26.94294739009
  0
LINE
  5
339
100
AcDbEntity
  8
レイヤ1
  6
CONTINUOUS
 62
     0
100
AcDbLine
 10
-58.60091057345
 20
26.94294739009
 11
-76.45061321938
 21
32.33153686811
  0
LINE
  5
33A
100
AcDbEntity
  8
レイヤ1
  6
CONTINUOUS
 62
     0
100
AcDbLine
 10
-76.45061321938
 20
32.33153686811
 11
-88.23815270255
 21
51.86517372592
  0
LINE
  5
33B
100
AcDbEntity
  8
レイヤ1
  6
CONTINUOUS
 62
     0
100
AcDbLine
 10
-88.23815270255
 20
51.86517372592
 11
-94.97388955007
 21
52.2019605683
  0
LINE
  5
33C
100
AcDbEntity
  8
レイヤ1
  6
CONTINUOUS
 62
     0
100
AcDbLine
 10
-94.97388955007
 20
52.2019605683
 11
-105.7510685061
 21
77.12418690414
  0
LINE
  5
33D
100
AcDbEntity
  8
レイヤ1
  6
CONTINUOUS
 62
     0
100
AcDbLine
 10
-105.7510685061
 20
77.12418690414
 11
-109.7925106146
 21
132.0204422114
  0
LINE
  5
33E
100
AcDbEntity
  8
レイヤ1
  6
CONTINUOUS
 62
     0
100
AcDbLine
 10
-109.7925106146
 20
132.0204422114
 11
-111.4764448265
 21
181.1913211984
  0
LINE
  5
33F
100
AcDbEntity
  8
レイヤ1
  6
CONTINUOUS
 62
     0
100
AcDbLine
 10
-111.4764448265
 20
181.1913211984
 11
-111.4793412804
 21
221.3095244107
  0
LINE
  5
340
100
AcDbEntity
  8
レイヤ1
  6
CONTINUOUS
 62
     0
100
AcDbLine
 10
-97.80985370652
 20
221.3095244107
 11
-95.31067639245
 21
178.160239617
  0
LINE
  5
341
100
AcDbEntity
  8
レイヤ1
  6
CONTINUOUS
 62
     0
100
AcDbLine
 10
-95.31067639245
 20
178.160239617
 11
-89.92208691443
 21
131.0100816843
  0
LINE
  5
342
100
AcDbEntity
  8
レイヤ1
  6
CONTINUOUS
 62
     0
100
AcDbLine
 10
-89.92208691443
 20
131.0100816843
 11
-90.2588737568
 21
86.21743164829
  0
LINE
  5
343
100
AcDbEntity
  8
レイヤ1
  6
CONTINUOUS
 62
     0
100
AcDbLine
 10
-90.2588737568
 20
86.21743164829
 11
-90.59566059918
 21
73.75631848037
  0
LINE
  5
344
100
AcDbEntity
  8
レイヤ1
  6
CONTINUOUS
 62
     0
100
AcDbLine
 10
-90.59566059918
 20
73.75631848037
 11
-89.92208691443
 21
61.29520531246
  0
LINE
  5
345
100
AcDbEntity
  8
レイヤ1
  6
CONTINUOUS
 62
     0
100
AcDbLine
 10
-89.92208691443
 20
61.29520531246
 11
-78.80812111602
 21
43.10871582415
  0
LINE
  5
346
100
AcDbEntity
  8
レイヤ1
  6
CONTINUOUS
 62
     0
100
AcDbLine
 10
-78.80812111602
 20
43.10871582415
 11
-58.60091057345
 21
26.94294739009
  0
LINE
  5
347
100
AcDbEntity
  8
レイヤ1
  6
CONTINUOUS
 62
     0
100
AcDbLine
 10
112.4868053536
 20
231.7093475548
 11
111.4067070512
 21
195.9932809233
  0
LINE
  5
348
100
AcDbEntity
  8
レイヤ1
  6
CONTINUOUS
 62
     0
100
AcDbLine
 10
111.4067070512
 20
195.9932809233
 11
105.2174455483
 21
140.2899273978
  0
LINE
  5
349
100
AcDbEntity
  8
レイヤ1
  6
CONTINUOUS
 62
     0
100
AcDbLine
 10
105.2174455483
 20
140.2899273978
 11
102.4666626582
 21
129.2867958371
  0
LINE
  5
34A
100
AcDbEntity
  8
レイヤ1
  6
CONTINUOUS
 62
     0
100
AcDbLine
 10
-94.97388955007
 20
52.2019605683
 11
-96.65782376195
 21
46.81337109028
  0
LINE
  5
34B
100
AcDbEntity
  8
レイヤ1
  6
CONTINUOUS
 62
     0
100
AcDbLine
 10
-96.65782376195
 20
46.81337109028
 11
-96.32103691957
 21
23.91186580871
  0
LINE
  5
34C
100
AcDbEntity
  8
レイヤ1
  6
CONTINUOUS
 62
     0
100
AcDbLine
 10
-96.32103691957
 20
23.91186580871
 11
-94.97388955007
 21
7.746097374651
  0
LINE
  5
34D
100
AcDbEntity
  8
レイヤ1
  6
CONTINUOUS
 62
     0
100
AcDbLine
 10
-94.97388955007
 20
7.746097374651
 11
-85.88064480591
 21
1.010360527128
  0
LINE
  5
34E
100
AcDbEntity
  8
レイヤ1
  6
CONTINUOUS
 62
     0
100
AcDbLine
 10
-85.88064480591
 20
1.010360527128
 11
-75.10346584988
 21
-1.683934211881
  0
LINE
  5
34F
100
AcDbEntity
  8
レイヤ1
  6
CONTINUOUS
 62
     0
100
AcDbLine
 10
-75.10346584988
 20
-1.683934211881
 11
-59.94805794295
 21
-2.357507896633
  0
LINE
  5
350
100
AcDbEntity
  8
レイヤ1
  6
CONTINUOUS
 62
     0
100
AcDbLine
 10
-59.94805794295
 20
-2.357507896633
 11
-42.77192898177
 21
-0.6735736847523
  0
LINE
  5
351
100
AcDbEntity
  8
レイヤ1
  6
CONTINUOUS
 62
     0
100
AcDbLine
 10
-42.77192898177
 20
-0.6735736847523
 11
-29.97402897148
 21
6.735736847523
  0
LINE
  5
352
100
AcDbEntity
  8
レイヤ1
  6
CONTINUOUS
 62
     0
100
AcDbLine
 10
-29.97402897148
 20
6.735736847523
 11
-14.81862106455
 21
17.51291580356
  0
LINE
  5
353
100
AcDbEntity
  8
レイヤ1
  6
CONTINUOUS
 62
     0
100
AcDbLine
 10
-14.81862106455
 20
17.51291580356
 11
-11.6882020385
 21
23.63146208174
  0
LINE
  5
354
100
AcDbEntity
  8
レイヤ1
  6
CONTINUOUS
 62
     0
100
AcDbLine
 10
-94.83786179151
 20
11.7104142386
 11
-88.40538073087
 21
7.092222707887
  0
LINE
  5
355
100
AcDbEntity
  8
レイヤ1
  6
CONTINUOUS
 62
     0
100
AcDbLine
 10
-88.40538073087
 20
7.092222707887
 11
-78.17938519856
 21
3.133772824415
  0
LINE
  5
356
100
AcDbEntity
  8
レイヤ1
  6
CONTINUOUS
 62
     0
100
AcDbLine
 10
-78.17938519856
 20
3.133772824415
 11
-61.02610237019
 21
1.979224941736
  0
LINE
  5
357
100
AcDbEntity
  8
レイヤ1
  6
CONTINUOUS
 62
     0
100
AcDbLine
 10
-61.02610237019
 20
1.979224941736
 11
-44.36762577724
 21
3.958449883472
  0
LINE
  5
358
100
AcDbEntity
  8
レイヤ1
  6
CONTINUOUS
 62
     0
100
AcDbLine
 10
-44.36762577724
 20
3.958449883472
 11
-32.98708236226
 21
9.566253885056
  0
LINE
  5
359
100
AcDbEntity
  8
レイヤ1
  6
CONTINUOUS
 62
     0
100
AcDbLine
 10
-32.98708236226
 20
9.566253885056
 11
-22.92602224177
 21
17.64808906381
  0
LINE
  5
35A
100
AcDbEntity
  8
レイヤ1
  6
CONTINUOUS
 62
     0
100
AcDbLine
 10
-22.92602224177
 20
17.64808906381
 11
-19.79224941736
 21
24.08057012445
  0
LINE
  5
35B
100
AcDbEntity
  8
レイヤ1
  6
CONTINUOUS
 62
     0
100
AcDbLine
 10
-96.157345086
 20
21.77147435909
 11
-86.09628496551
 21
15.00912247483
  0
LINE
  5
35C
100
AcDbEntity
  8
レイヤ1
  6
CONTINUOUS
 62
     0
100
AcDbLine
 10
-86.09628496551
 20
15.00912247483
 11
-71.91183954973
 21
11.54547882679
  0
LINE
  5
35D
100
AcDbEntity
  8
レイヤ1
  6
CONTINUOUS
 62
     0
100
AcDbLine
 10
-71.91183954973
 20
11.54547882679
 11
-60.69623154656
 21
10.72080176774
  0
LINE
  5
35E
100
AcDbEntity
  8
レイヤ1
  6
CONTINUOUS
 62
     0
100
AcDbLine
 10
-60.69623154656
 20
10.72080176774
 11
-48.1611402489
 21
11.7104142386
  0
LINE
  5
35F
100
AcDbEntity
  8
レイヤ1
  6
CONTINUOUS
 62
     0
100
AcDbLine
 10
-48.1611402489
 20
11.7104142386
 11
-37.77020930479
 21
15.9987349457
  0
LINE
  5
360
100
AcDbEntity
  8
レイヤ1
  6
CONTINUOUS
 62
     0
100
AcDbLine
 10
-37.77020930479
 20
15.9987349457
 11
-31.00785742053
 21
19.62731400555
  0
LINE
  5
361
100
AcDbEntity
  8
レイヤ1
  6
CONTINUOUS
 62
     0
100
AcDbLine
 10
-31.00785742053
 20
19.62731400555
 11
-28.03902000792
 21
24.57537635989
  0
LINE
  5
362
100
AcDbEntity
  8
レイヤ1
  6
CONTINUOUS
 62
     0
100
AcDbLine
 10
-96.48943034076
 20
35.36261844949
 11
-89.06512237811
 21
30.18318036147
  0
LINE
  5
363
100
AcDbEntity
  8
レイヤ1
  6
CONTINUOUS
 62
     0
100
AcDbLine
 10
-89.06512237811
 20
30.18318036147
 11
-78.01444978675
 21
25.72992424257
  0
LINE
  5
364
100
AcDbEntity
  8
レイヤ1
  6
CONTINUOUS
 62
     0
100
AcDbLine
 10
-78.01444978675
 20
25.72992424257
 11
-62.18065025287
 21
23.58576388902
  0
LINE
  5
365
100
AcDbEntity
  8
レイヤ1
  6
CONTINUOUS
 62
     0
100
AcDbLine
 10
-62.18065025287
 20
23.58576388902
 11
-45.68710907173
 21
23.91563471264
  0
LINE
  5
366
100
AcDbEntity
  8
レイヤ1
  6
CONTINUOUS
 62
     0
100
AcDbLine
 10
-45.68710907173
 20
23.91563471264
 11
-40.90398212921
 21
25.56498883075
  0
LINE
  5
367
100
AcDbEntity
  8
レイヤ1
  6
CONTINUOUS
 62
     0
100
AcDbLine
 10
21.91883468604
 20
21.44746189709
 11
23.56863944735
 21
16.26236121867
  0
LINE
  5
368
100
AcDbEntity
  8
レイヤ1
  6
CONTINUOUS
 62
     0
100
AcDbLine
 10
23.56863944735
 20
16.26236121867
 11
32.0533496484
 21
10.60588775131
  0
LINE
  5
369
100
AcDbEntity
  8
レイヤ1
  6
CONTINUOUS
 62
     0
100
AcDbLine
 10
32.0533496484
 20
10.60588775131
 11
43.13061018866
 21
7.30627822868
  0
LINE
  5
36A
100
AcDbEntity
  8
レイヤ1
  6
CONTINUOUS
 62
     0
100
AcDbLine
 10
43.13061018866
 20
7.30627822868
 11
60.10003059075
 21
5.420787072892
  0
LINE
  5
36B
100
AcDbEntity
  8
レイヤ1
  6
CONTINUOUS
 62
     0
100
AcDbLine
 10
60.10003059075
 20
5.420787072892
 11
75.41964623154
 21
5.892159861839
  0
LINE
  5
36C
100
AcDbEntity
  8
レイヤ1
  6
CONTINUOUS
 62
     0
100
AcDbLine
 10
75.41964623154
 20
5.892159861839
 11
84.611415616
 21
9.663142173415
  0
LINE
  5
36D
100
AcDbEntity
  8
レイヤ1
  6
CONTINUOUS
 62
     0
100
AcDbLine
 10
84.611415616
 20
9.663142173415
 11
92.86043942258
 21
16.0266748242
  0
LINE
  5
36E
100
AcDbEntity
  8
レイヤ1
  6
CONTINUOUS
 62
     0
100
AcDbLine
 10
92.86043942258
 20
16.0266748242
 11
96.86710812863
 21
23.33295305288
  0
LINE
  5
36F
100
AcDbEntity
  8
レイヤ1
  6
CONTINUOUS
 62
     0
100
AcDbLine
 10
96.86710812863
 20
23.33295305288
 11
97.33848091758
 21
40.0666870605
  0
LINE
  5
370
100
AcDbEntity
  8
レイヤ1
  6
CONTINUOUS
 62
     0
100
AcDbLine
 10
97.33848091758
 20
40.0666870605
 11
95.9842500772
 21
51.52838688355
  0
LINE
  5
371
100
AcDbEntity
  8
レイヤ1
  6
CONTINUOUS
 62
     0
100
AcDbLine
 10
31.32117634098
 20
21.38596449088
 11
38.18119590471
 21
15.55530203525
  0
LINE
  5
372
100
AcDbEntity
  8
レイヤ1
  6
CONTINUOUS
 62
     0
100
AcDbLine
 10
38.18119590471
 20
15.55530203525
 11
50.20120202287
 21
9.898828567889
  0
LINE
  5
373
100
AcDbEntity
  8
レイヤ1
  6
CONTINUOUS
 62
     0
100
AcDbLine
 10
50.20120202287
 20
9.898828567889
 11
62.45689453549
 21
9.427455778942
  0
LINE
  5
374
100
AcDbEntity
  8
レイヤ1
  6
CONTINUOUS
 62
     0
100
AcDbLine
 10
62.45689453549
 20
9.427455778942
 11
76.12670541496
 21
10.60588775131
  0
LINE
  5
375
100
AcDbEntity
  8
レイヤ1
  6
CONTINUOUS
 62
     0
100
AcDbLine
 10
76.12670541496
 20
10.60588775131
 11
87.91102513863
 21
16.0266748242
  0
LINE
  5
376
100
AcDbEntity
  8
レイヤ1
  6
CONTINUOUS
 62
     0
100
AcDbLine
 10
87.91102513863
 20
16.0266748242
 11
93.33181221153
 21
22.62589386946
  0
LINE
  5
377
100
AcDbEntity
  8
レイヤ1
  6
CONTINUOUS
 62
     0
100
AcDbLine
 10
93.33181221153
 20
22.62589386946
 11
95.21730336731
 21
28.5180537313
  0
LINE
  5
378
100
AcDbEntity
  8
レイヤ1
  6
CONTINUOUS
 62
     0
100
AcDbLine
 10
43.13061018866
 20
24.51138502525
 11
51.14394760076
 21
20.97608910815
  0
LINE
  5
379
100
AcDbEntity
  8
レイヤ1
  6
CONTINUOUS
 62
     0
100
AcDbLine
 10
51.14394760076
 20
20.97608910815
 11
60.80708977418
 21
19.09059795236
  0
LINE
  5
37A
100
AcDbEntity
  8
レイヤ1
  6
CONTINUOUS
 62
     0
100
AcDbLine
 10
60.80708977418
 20
19.09059795236
 11
73.76984147022
 21
19.09059795236
  0
LINE
  5
37B
100
AcDbEntity
  8
レイヤ1
  6
CONTINUOUS
 62
     0
100
AcDbLine
 10
73.76984147022
 20
19.09059795236
 11
84.611415616
 21
21.68314829157
  0
LINE
  5
37C
100
AcDbEntity
  8
レイヤ1
  6
CONTINUOUS
 62
     0
100
AcDbLine
 10
84.611415616
 20
21.68314829157
 11
92.86043942258
 21
28.04668094235
  0
LINE
  5
37D
100
AcDbEntity
  8
レイヤ1
  6
CONTINUOUS
 62
     0
100
AcDbLine
 10
92.86043942258
 20
28.04668094235
 11
96.86710812863
 21
35.11727277656
  0
LINE
  5
37E
100
AcDbEntity
  8
レイヤ1
  6
CONTINUOUS
 62
     0
100
AcDbLine
 10
62.92826732444
 20
33.93884080419
 11
80.84043330443
 21
33.93884080419
  0
LINE
  5
37F
100
AcDbEntity
  8
レイヤ1
  6
CONTINUOUS
 62
     0
100
AcDbLine
 10
80.84043330443
 20
33.93884080419
 11
90.26788908337
 21
37.23845032682
  0
LINE
  5
380
100
AcDbEntity
  8
レイヤ1
  6
CONTINUOUS
 62
     0
100
AcDbLine
 10
90.26788908337
 20
37.23845032682
 11
94.98161697284
 21
41.71649182182
  0
LINE
  5
381
100
AcDbEntity
  8
レイヤ1
  6
CONTINUOUS
 62
     0
100
AcDbLine
 10
94.98161697284
 20
41.71649182182
 11
96.66136549739
 21
45.79753697203
  0
LINE
  5
382
100
AcDbEntity
  8
レイヤ1
  6
CONTINUOUS
 62
     0
100
AcDbLine
 10
1.010360527128
 20
1120.489824585
 11
-45.80301056315
 21
1141.707395655
  0
LINE
  5
383
100
AcDbEntity
  8
レイヤ1
  6
CONTINUOUS
 62
     0
100
AcDbLine
 10
-45.80301056315
 20
1141.707395655
 11
-97.66818428908
 21
1163.59854041
  0
LINE
  5
384
100
AcDbEntity
  8
レイヤ1
  6
CONTINUOUS
 62
     0
100
AcDbLine
 10
-97.66818428908
 20
1163.59854041
 11
-131.3468685267
 21
1176.059653577
  0
LINE
  5
385
100
AcDbEntity
  8
レイヤ1
  6
CONTINUOUS
 62
     0
100
AcDbLine
 10
-131.3468685267
 20
1176.059653577
 11
-139.4297527437
 21
1176.39644042
  0
LINE
  5
386
100
AcDbEntity
  8
レイヤ1
  6
CONTINUOUS
 62
     0
100
AcDbLine
 10
-139.4297527437
 20
1176.39644042
 11
-143.4711948522
 21
1173.702145681
  0
LINE
  5
387
100
AcDbEntity
  8
レイヤ1
  6
CONTINUOUS
 62
     0
100
AcDbLine
 10
-143.4711948522
 20
1173.702145681
 11
-152.5644395964
 21
1153.831721981
  0
LINE
  5
388
100
AcDbEntity
  8
レイヤ1
  6
CONTINUOUS
 62
     0
100
AcDbLine
 10
-152.5644395964
 20
1153.831721981
 11
-157.616242232
 21
1144.738477236
  0
LINE
  5
389
100
AcDbEntity
  8
レイヤ1
  6
CONTINUOUS
 62
     0
100
AcDbLine
 10
-157.616242232
 20
1144.738477236
 11
-160.310536971
 21
1128.909495645
  0
LINE
  5
38A
100
AcDbEntity
  8
レイヤ1
  6
CONTINUOUS
 62
     0
100
AcDbLine
 10
-160.310536971
 20
1128.909495645
 11
-168.7302080304
 21
1107.355137733
  0
LINE
  5
38B
100
AcDbEntity
  8
レイヤ1
  6
CONTINUOUS
 62
     0
100
AcDbLine
 10
-168.7302080304
 20
1107.355137733
 11
-177.4866659322
 21
1092.199729826
  0
LINE
  5
38C
100
AcDbEntity
  8
レイヤ1
  6
CONTINUOUS
 62
     0
100
AcDbLine
 10
-177.4866659322
 20
1092.199729826
 11
-178.4970264594
 21
1074.013240337
  0
LINE
  5
38D
100
AcDbEntity
  8
レイヤ1
  6
CONTINUOUS
 62
     0
100
AcDbLine
 10
-178.4970264594
 20
1074.013240337
 11
-175.465944878
 21
1063.236061381
  0
LINE
  5
38E
100
AcDbEntity
  8
レイヤ1
  6
CONTINUOUS
 62
     0
100
AcDbLine
 10
-175.465944878
 20
1063.236061381
 11
-166.3727001338
 21
996.552266591
  0
LINE
  5
38F
100
AcDbEntity
  8
レイヤ1
  6
CONTINUOUS
 62
     0
100
AcDbLine
 10
-166.3727001338
 20
996.552266591
 11
-163.0048317101
 21
993.857971852
  0
LINE
  5
390
100
AcDbEntity
  8
レイヤ1
  6
CONTINUOUS
 62
     0
100
AcDbLine
 10
-163.0048317101
 20
993.857971852
 11
-147.5126369607
 21
996.2154797486
  0
LINE
  5
391
100
AcDbEntity
  8
レイヤ1
  6
CONTINUOUS
 62
     0
100
AcDbLine
 10
-147.5126369607
 20
996.2154797486
 11
-112.1500185113
 21
999.9201350147
  0
LINE
  5
392
100
AcDbEntity
  8
レイヤ1
  6
CONTINUOUS
 62
     0
100
AcDbLine
 10
-112.1500185113
 20
999.9201350147
 11
-82.17598953978
 21
1002.951216596
  0
LINE
  5
393
100
AcDbEntity
  8
レイヤ1
  6
CONTINUOUS
 62
     0
100
AcDbLine
 10
-82.17598953978
 20
1002.951216596
 11
-52.87553425305
 21
1002.277642911
  0
LINE
  5
394
100
AcDbEntity
  8
レイヤ1
  6
CONTINUOUS
 62
     0
100
AcDbLine
 10
-150.8805053845
 20
995.5419060639
 11
-133.7043764233
 21
966.9150244619
  0
LINE
  5
395
100
AcDbEntity
  8
レイヤ1
  6
CONTINUOUS
 62
     0
100
AcDbLine
 10
-133.7043764233
 20
966.9150244619
 11
-131.3468685267
 21
965.9046639348
  0
LINE
  5
396
100
AcDbEntity
  8
レイヤ1
  6
CONTINUOUS
 62
     0
100
AcDbLine
 10
-131.3468685267
 20
965.9046639348
 11
-121.9168369402
 21
966.5782376195
  0
LINE
  5
397
100
AcDbEntity
  8
レイヤ1
  6
CONTINUOUS
 62
     0
100
AcDbLine
 10
-121.9168369402
 20
966.5782376195
 11
-113.8339527231
 21
971.2932534128
  0
LINE
  5
398
100
AcDbEntity
  8
レイヤ1
  6
CONTINUOUS
 62
     0
100
AcDbLine
 10
-113.8339527231
 20
971.2932534128
 11
-106.4246421909
 21
979.7129244722
  0
LINE
  5
399
100
AcDbEntity
  8
レイヤ1
  6
CONTINUOUS
 62
     0
100
AcDbLine
 10
-106.4246421909
 20
979.7129244722
 11
-97.66818428908
 21
980.3864981569
  0
LINE
  5
39A
100
AcDbEntity
  8
レイヤ1
  6
CONTINUOUS
 62
     0
100
AcDbLine
 10
-97.66818428908
 20
980.3864981569
 11
-83.18635006691
 21
985.4383007926
  0
LINE
  5
39B
100
AcDbEntity
  8
レイヤ1
  6
CONTINUOUS
 62
     0
100
AcDbLine
 10
-83.18635006691
 20
985.4383007926
 11
-68.03094215998
 21
992.5108244825
  0
LINE
  5
39C
100
AcDbEntity
  8
レイヤ1
  6
CONTINUOUS
 62
     0
100
AcDbLine
 10
-68.03094215998
 20
992.5108244825
 11
-59.67568388464
 21
1002.455238159
  0
LINE
  5
39D
100
AcDbEntity
  8
レイヤ1
  6
CONTINUOUS
 62
     0
100
AcDbLine
 10
85.88064480591
 20
1113.080514053
 11
78.47133427364
 21
1119.816250901
  0
LINE
  5
39E
100
AcDbEntity
  8
レイヤ1
  6
CONTINUOUS
 62
     0
100
AcDbLine
 10
78.47133427364
 20
1119.816250901
 11
65.67343426335
 21
1127.225561433
  0
LINE
  5
39F
100
AcDbEntity
  8
レイヤ1
  6
CONTINUOUS
 62
     0
100
AcDbLine
 10
65.67343426335
 20
1127.225561433
 11
55.23304214969
 21
1124.868053536
  0
LINE
  5
3A0
100
AcDbEntity
  8
レイヤ1
  6
CONTINUOUS
 62
     0
100
AcDbLine
 10
55.23304214969
 20
1124.868053536
 11
33.34189739524
 21
1130.593429857
  0
LINE
  5
3A1
100
AcDbEntity
  8
レイヤ1
  6
CONTINUOUS
 62
     0
100
AcDbLine
 10
33.34189739524
 20
1130.593429857
 11
22.22793159683
 21
1129.919856172
  0
LINE
  5
3A2
100
AcDbEntity
  8
レイヤ1
  6
CONTINUOUS
 62
     0
100
AcDbLine
 10
22.22793159683
 20
1129.919856172
 11
1.010360527128
 21
1120.489824585
  0
LINE
  5
3A3
100
AcDbEntity
  8
レイヤ1
  6
CONTINUOUS
 62
     0
100
AcDbLine
 10
1.010360527128
 20
1120.489824585
 11
-7.746097374651
 21
1115.43802195
  0
LINE
  5
3A4
100
AcDbEntity
  8
レイヤ1
  6
CONTINUOUS
 62
     0
100
AcDbLine
 10
-7.746097374651
 20
1115.43802195
 11
-38.98169673109
 21
1103.037640835
  0
LINE
  5
3A5
100
AcDbEntity
  8
レイヤ1
  6
CONTINUOUS
 62
     0
100
AcDbLine
 10
-38.98169673109
 20
1103.037640835
 11
-40.90671879189
 21
1099.668852229
  0
LINE
  5
3A6
100
AcDbEntity
  8
レイヤ1
  6
CONTINUOUS
 62
     0
100
AcDbLine
 10
-40.90671879189
 20
1099.668852229
 11
-49.56931806546
 21
1079.937376106
  0
LINE
  5
3A7
100
AcDbEntity
  8
レイヤ1
  6
CONTINUOUS
 62
     0
100
AcDbLine
 10
-49.56931806546
 20
1079.937376106
 11
-54.86312873265
 21
1031.330569071
  0
LINE
  5
3A8
100
AcDbEntity
  8
レイヤ1
  6
CONTINUOUS
 62
     0
100
AcDbLine
 10
-54.86312873265
 20
1031.330569071
 11
-52.87553425305
 21
1002.277642911
  0
LINE
  5
3A9
100
AcDbEntity
  8
レイヤ1
  6
CONTINUOUS
 62
     0
100
AcDbLine
 10
-52.87553425305
 20
1002.277642911
 11
-48.12555151987
 21
985.1300396117
  0
LINE
  5
3AA
100
AcDbEntity
  8
レイヤ1
  6
CONTINUOUS
 62
     0
100
AcDbLine
 10
-48.12555151987
 20
985.1300396117
 11
-41.86922982229
 21
967.8048410646
  0
LINE
  5
3AB
100
AcDbEntity
  8
レイヤ1
  6
CONTINUOUS
 62
     0
100
AcDbLine
 10
-41.86922982229
 20
967.8048410646
 11
-40.90671879189
 21
960.5860083366
  0
LINE
  5
3AC
100
AcDbEntity
  8
レイヤ1
  6
CONTINUOUS
 62
     0
100
AcDbLine
 10
-40.90671879189
 20
960.5860083366
 11
-1.443766545596
 21
944.2233208198
  0
LINE
  5
3AD
100
AcDbEntity
  8
レイヤ1
  6
CONTINUOUS
 62
     0
100
AcDbLine
 10
-1.443766545596
 20
944.2233208198
 11
12.03138787997
 21
941.8170432438
  0
LINE
  5
3AE
100
AcDbEntity
  8
レイヤ1
  6
CONTINUOUS
 62
     0
100
AcDbLine
 10
12.03138787997
 20
941.8170432438
 11
35.6129081247
 21
944.2233208198
  0
LINE
  5
3AF
100
AcDbEntity
  8
レイヤ1
  6
CONTINUOUS
 62
     0
100
AcDbLine
 10
35.6129081247
 20
944.2233208198
 11
55.34438424785
 21
952.4046645782
  0
LINE
  5
3B0
100
AcDbEntity
  8
レイヤ1
  6
CONTINUOUS
 62
     0
100
AcDbLine
 10
55.34438424785
 20
952.4046645782
 11
73.6320938254
 21
956.2547086998
  0
LINE
  5
3B1
100
AcDbEntity
  8
レイヤ1
  6
CONTINUOUS
 62
     0
100
AcDbLine
 10
73.6320938254
 20
956.2547086998
 11
77.96339346219
 21
958.6609862758
  0
LINE
  5
3B2
100
AcDbEntity
  8
レイヤ1
  6
CONTINUOUS
 62
     0
100
AcDbLine
 10
77.96339346219
 20
958.6609862758
 11
78.92590449258
 21
960.5860083366
  0
LINE
  5
3B3
100
AcDbEntity
  8
レイヤ1
  6
CONTINUOUS
 62
     0
100
AcDbLine
 10
78.92590449258
 20
960.5860083366
 11
79.88841552298
 21
965.8798190038
  0
LINE
  5
3B4
100
AcDbEntity
  8
レイヤ1
  6
CONTINUOUS
 62
     0
100
AcDbLine
 10
79.88841552298
 20
965.8798190038
 11
82.77594861417
 21
974.5424182773
  0
LINE
  5
3B5
100
AcDbEntity
  8
レイヤ1
  6
CONTINUOUS
 62
     0
100
AcDbLine
 10
82.77594861417
 20
974.5424182773
 11
83.25720412937
 21
976.9486958533
  0
LINE
  5
3B6
100
AcDbEntity
  8
レイヤ1
  6
CONTINUOUS
 62
     0
100
AcDbLine
 10
-114.8443132503
 20
907.3037533613
 11
-103.9511912829
 21
906.6853906343
  0
LINE
  5
3B7
100
AcDbEntity
  8
レイヤ1
  6
CONTINUOUS
 62
     0
100
AcDbLine
 10
-103.9511912829
 20
906.6853906343
 11
-99.61989164613
 21
908.6104126951
  0
LINE
  5
3B8
100
AcDbEntity
  8
レイヤ1
  6
CONTINUOUS
 62
     0
100
AcDbLine
 10
-99.61989164613
 20
908.6104126951
 11
-87.58850376616
 21
917.2730119687
  0
LINE
  5
3B9
100
AcDbEntity
  8
レイヤ1
  6
CONTINUOUS
 62
     0
100
AcDbLine
 10
-87.58850376616
 20
917.2730119687
 11
-53.90061770225
 21
928.8231443335
  0
LINE
  5
3BA
100
AcDbEntity
  8
レイヤ1
  6
CONTINUOUS
 62
     0
100
AcDbLine
 10
-53.90061770225
 20
928.8231443335
 11
-47.64429600467
 21
929.7856553639
  0
LINE
  5
3BB
100
AcDbEntity
  8
レイヤ1
  6
CONTINUOUS
 62
     0
100
AcDbLine
 10
-47.64429600467
 20
929.7856553639
 11
-30.80035297272
 21
935.079466031
  0
LINE
  5
3BC
100
AcDbEntity
  8
レイヤ1
  6
CONTINUOUS
 62
     0
100
AcDbLine
 10
-30.80035297272
 20
935.079466031
 11
-14.43766545596
 21
943.2608097894
  0
LINE
  5
3BD
100
AcDbEntity
  8
レイヤ1
  6
CONTINUOUS
 62
     0
100
AcDbLine
 10
-14.43766545596
 20
943.2608097894
 11
-12.03138787997
 21
949.0358759718
  0
LINE
  5
3BE
100
AcDbEntity
  8
レイヤ1
  6
CONTINUOUS
 62
     0
100
AcDbLine
 10
-78.24788296522
 20
979.984028221
 11
-66.69924963601
 21
975.7416731205
  0
LINE
  5
3BF
100
AcDbEntity
  8
レイヤ1
  6
CONTINUOUS
 62
     0
100
AcDbLine
 10
-66.69924963601
 20
975.7416731205
 11
-56.56473467365
 21
973.3848091758
  0
LINE
  5
3C0
100
AcDbEntity
  8
レイヤ1
  6
CONTINUOUS
 62
     0
100
AcDbLine
 10
-56.56473467365
 20
973.3848091758
 11
-43.36629658313
 21
971.49931802
  0
LINE
  5
3C1
100
AcDbEntity
  8
レイヤ1
  6
CONTINUOUS
 62
     0
100
AcDbLine
 10
-86.70297137898
 20
984.2115724279
 11
-78.24788296522
 21
979.984028221
  0
LINE
  5
3C2
100
AcDbEntity
  8
レイヤ1
  6
CONTINUOUS
 62
     0
100
AcDbLine
 10
-96.65215132143
 20
980.7059586301
 11
-92.03395979072
 21
977.9020566293
  0
LINE
  5
3C3
100
AcDbEntity
  8
レイヤ1
  6
CONTINUOUS
 62
     0
100
AcDbLine
 10
-92.03395979072
 20
977.9020566293
 11
-80.98328719936
 21
972.953994275
  0
LINE
  5
3C4
100
AcDbEntity
  8
レイヤ1
  6
CONTINUOUS
 62
     0
100
AcDbLine
 10
-80.98328719936
 20
972.953994275
 11
-66.63390637177
 21
968.3358027442
  0
LINE
  5
3C5
100
AcDbEntity
  8
レイヤ1
  6
CONTINUOUS
 62
     0
100
AcDbLine
 10
-66.63390637177
 20
968.3358027442
 11
-55.74816919223
 21
966.1916423907
  0
LINE
  5
3C6
100
AcDbEntity
  8
レイヤ1
  6
CONTINUOUS
 62
     0
100
AcDbLine
 10
-55.74816919223
 20
966.1916423907
 11
-47.00659236623
 21
965.3669653316
  0
LINE
  5
3C7
100
AcDbEntity
  8
レイヤ1
  6
CONTINUOUS
 62
     0
100
AcDbLine
 10
-47.00659236623
 20
965.3669653316
 11
-41.72865918826
 21
965.2020299198
  0
LINE
  5
3C8
100
AcDbEntity
  8
レイヤ1
  6
CONTINUOUS
 62
     0
100
AcDbLine
 10
78.01444978675
 20
954.1513573285
 11
60.95841847008
 21
925.4902428496
  0
LINE
  5
3C9
100
AcDbEntity
  8
レイヤ1
  6
CONTINUOUS
 62
     0
100
AcDbLine
 10
60.95841847008
 20
925.4902428496
 11
44.45586319365
 21
893.1587059815
  0
LINE
  5
3CA
100
AcDbEntity
  8
レイヤ1
  6
CONTINUOUS
 62
     0
100
AcDbLine
 10
44.45586319365
 20
893.1587059815
 11
29.97402897148
 21
860.490382271
  0
LINE
  5
3CB
100
AcDbEntity
  8
レイヤ1
  6
CONTINUOUS
 62
     0
100
AcDbLine
 10
29.97402897148
 20
860.490382271
 11
19.87042370019
 21
834.5577954081
  0
LINE
  5
3CC
100
AcDbEntity
  8
レイヤ1
  6
CONTINUOUS
 62
     0
100
AcDbLine
 10
19.87042370019
 20
834.5577954081
 11
15.82898159168
 21
819.0656006588
  0
LINE
  5
3CD
100
AcDbEntity
  8
レイヤ1
  6
CONTINUOUS
 62
     0
100
AcDbLine
 10
15.82898159168
 20
819.0656006588
 11
2.357507896633
 21
777.9776058889
  0
LINE
  5
3CE
100
AcDbEntity
  8
レイヤ1
  6
CONTINUOUS
 62
     0
100
AcDbLine
 10
2.357507896633
 20
777.9776058889
 11
3.031081581385
 21
775.6200979922
  0
LINE
  5
3CF
100
AcDbEntity
  8
レイヤ1
  6
CONTINUOUS
 62
     0
100
AcDbLine
 10
3.031081581385
 20
775.6200979922
 11
37.72012634613
 21
763.4957716667
  0
LINE
  5
3D0
100
AcDbEntity
  8
レイヤ1
  6
CONTINUOUS
 62
     0
100
AcDbLine
 10
37.72012634613
 20
763.4957716667
 11
94.63710270769
 21
747.3300032326
  0
LINE
  5
3D1
100
AcDbEntity
  8
レイヤ1
  6
CONTINUOUS
 62
     0
100
AcDbLine
 10
94.63710270769
 20
747.3300032326
 11
111.4764448265
 21
745.9828558631
  0
LINE
  5
3D2
100
AcDbEntity
  8
レイヤ1
  6
CONTINUOUS
 62
     0
100
AcDbLine
 10
111.4764448265
 20
745.9828558631
 11
130.3365079996
 21
748.0035769174
  0
LINE
  5
3D3
100
AcDbEntity
  8
レイヤ1
  6
CONTINUOUS
 62
     0
100
AcDbLine
 10
130.3365079996
 20
748.0035769174
 11
152.227652754
 21
752.3818058683
  0
LINE
  5
3D4
100
AcDbEntity
  8
レイヤ1
  6
CONTINUOUS
 62
     0
100
AcDbLine
 10
152.227652754
 20
752.3818058683
 11
176.1395185627
 21
761.8118374548
  0
LINE
  5
3D5
100
AcDbEntity
  8
レイヤ1
  6
CONTINUOUS
 62
     0
100
AcDbLine
 10
176.1395185627
 20
761.8118374548
 11
213.1860712241
 21
781.3454743126
  0
LINE
  5
3D6
100
AcDbEntity
  8
レイヤ1
  6
CONTINUOUS
 62
     0
100
AcDbLine
 10
213.1860712241
 20
781.3454743126
 11
243.4968870379
 21
799.1951769586
  0
LINE
  5
3D7
100
AcDbEntity
  8
レイヤ1
  6
CONTINUOUS
 62
     0
100
AcDbLine
 10
243.4968870379
 20
799.1951769586
 11
244.5072475651
 21
801.8894716976
  0
LINE
  5
3D8
100
AcDbEntity
  8
レイヤ1
  6
CONTINUOUS
 62
     0
100
AcDbLine
 10
244.5072475651
 20
801.8894716976
 11
228.341479131
 21
831.1899269843
  0
LINE
  5
3D9
100
AcDbEntity
  8
レイヤ1
  6
CONTINUOUS
 62
     0
100
AcDbLine
 10
228.341479131
 20
831.1899269843
 11
222.2793159683
 21
847.018908576
  0
LINE
  5
3DA
100
AcDbEntity
  8
レイヤ1
  6
CONTINUOUS
 62
     0
100
AcDbLine
 10
222.2793159683
 20
847.018908576
 11
222.2522699886
 21
852.9490615998
  0
LINE
  5
3DB
100
AcDbEntity
  8
レイヤ1
  6
CONTINUOUS
 62
     0
100
AcDbLine
 10
222.2522699886
 20
852.9490615998
 11
220.1310924383
 21
856.2486711224
  0
LINE
  5
3DC
100
AcDbEntity
  8
レイヤ1
  6
CONTINUOUS
 62
     0
100
AcDbLine
 10
220.1310924383
 20
856.2486711224
 11
217.7742284936
 21
858.8412214616
  0
LINE
  5
3DD
100
AcDbEntity
  8
レイヤ1
  6
CONTINUOUS
 62
     0
100
AcDbLine
 10
217.7742284936
 20
858.8412214616
 11
209.9965774759
 21
881.93848812
  0
LINE
  5
3DE
100
AcDbEntity
  8
レイヤ1
  6
CONTINUOUS
 62
     0
100
AcDbLine
 10
235.0772159785
 20
774.6097374651
 11
231.7093475548
 21
791.7858664263
  0
LINE
  5
3DF
100
AcDbEntity
  8
レイヤ1
  6
CONTINUOUS
 62
     0
100
AcDbLine
 10
113.5763015869
 20
962.9922859126
 11
109.7262574653
 21
916.7917564535
  0
LINE
  5
3E0
100
AcDbEntity
  8
レイヤ1
  6
CONTINUOUS
 62
     0
100
AcDbLine
 10
109.7262574653
 20
916.7917564535
 11
104.9137023133
 21
893.691491724
  0
LINE
  5
3E1
100
AcDbEntity
  8
レイヤ1
  6
CONTINUOUS
 62
     0
100
AcDbLine
 10
104.9137023133
 20
893.691491724
 11
106.3574688589
 21
853.2660284473
  0
LINE
  5
3E2
100
AcDbEntity
  8
レイヤ1
  6
CONTINUOUS
 62
     0
100
AcDbLine
 10
106.3574688589
 20
853.2660284473
 11
104.9137023133
 21
844.6034291737
  0
LINE
  5
3E3
100
AcDbEntity
  8
レイヤ1
  6
CONTINUOUS
 62
     0
100
AcDbLine
 10
108.7637464349
 20
913.4229678471
 11
101.0636581917
 21
889.8414476024
  0
LINE
  5
3E4
100
AcDbEntity
  8
レイヤ1
  6
CONTINUOUS
 62
     0
100
AcDbLine
 10
101.0636581917
 20
889.8414476024
 11
98.17612510053
 21
879.253826268
  0
LINE
  5
3E5
100
AcDbEntity
  8
レイヤ1
  6
CONTINUOUS
 62
     0
100
AcDbLine
 10
98.17612510053
 20
879.253826268
 11
96.25110303974
 21
849.4159843257
  0
LINE
  5
3E6
100
AcDbEntity
  8
レイヤ1
  6
CONTINUOUS
 62
     0
100
AcDbLine
 10
96.25110303974
 20
849.4159843257
 11
99.61989164613
 21
845.0846846889
  0
LINE
  5
3E7
100
AcDbEntity
  8
レイヤ1
  6
CONTINUOUS
 62
     0
100
AcDbLine
 10
99.61989164613
 20
845.0846846889
 11
104.9137023133
 21
844.6034291737
  0
LINE
  5
3E8
100
AcDbEntity
  8
レイヤ1
  6
CONTINUOUS
 62
     0
100
AcDbLine
 10
104.9137023133
 20
844.6034291737
 11
137.1578218316
 21
838.8283629913
  0
LINE
  5
3E9
100
AcDbEntity
  8
レイヤ1
  6
CONTINUOUS
 62
     0
100
AcDbLine
 10
137.1578218316
 20
838.8283629913
 11
165.5518972283
 21
839.7908740217
  0
LINE
  5
3EA
100
AcDbEntity
  8
レイヤ1
  6
CONTINUOUS
 62
     0
100
AcDbLine
 10
92.40105891815
 20
1001.973982644
 11
97.21361407013
 21
998.6051940373
  0
LINE
  5
3EB
100
AcDbEntity
  8
レイヤ1
  6
CONTINUOUS
 62
     0
100
AcDbLine
 10
97.21361407013
 20
998.6051940373
 11
113.5763015869
 21
962.9922859126
  0
LINE
  5
3EC
100
AcDbEntity
  8
レイヤ1
  6
CONTINUOUS
 62
     0
100
AcDbLine
 10
113.5763015869
 20
962.9922859126
 11
125.6076894669
 21
941.8170432438
  0
LINE
  5
3ED
100
AcDbEntity
  8
レイヤ1
  6
CONTINUOUS
 62
     0
100
AcDbLine
 10
125.6076894669
 20
941.8170432438
 11
139.0828438924
 21
914.3854788775
  0
LINE
  5
3EE
100
AcDbEntity
  8
レイヤ1
  6
CONTINUOUS
 62
     0
100
AcDbLine
 10
139.0828438924
 20
914.3854788775
 11
142.4516324988
 21
912.4604568167
  0
LINE
  5
3EF
100
AcDbEntity
  8
レイヤ1
  6
CONTINUOUS
 62
     0
100
AcDbLine
 10
142.4516324988
 20
912.4604568167
 11
152.0767428028
 21
914.3854788775
  0
LINE
  5
3F0
100
AcDbEntity
  8
レイヤ1
  6
CONTINUOUS
 62
     0
100
AcDbLine
 10
152.0767428028
 20
914.3854788775
 11
159.2955755308
 21
889.8414476024
  0
LINE
  5
3F1
100
AcDbEntity
  8
レイヤ1
  6
CONTINUOUS
 62
     0
100
AcDbLine
 10
159.2955755308
 20
889.8414476024
 11
165.5518972283
 21
869.628715964
  0
LINE
  5
3F2
100
AcDbEntity
  8
レイヤ1
  6
CONTINUOUS
 62
     0
100
AcDbLine
 10
165.5518972283
 20
869.628715964
 11
165.5518972283
 21
839.7908740217
  0
LINE
  5
3F3
100
AcDbEntity
  8
レイヤ1
  6
CONTINUOUS
 62
     0
100
AcDbLine
 10
165.5518972283
 20
839.7908740217
 11
165.0706417132
 21
828.7219971721
  0
LINE
  5
3F4
100
AcDbEntity
  8
レイヤ1
  6
CONTINUOUS
 62
     0
100
AcDbLine
 10
165.0706417132
 20
828.7219971721
 11
169.8831968651
 21
830.6470192329
  0
LINE
  5
3F5
100
AcDbEntity
  8
レイヤ1
  6
CONTINUOUS
 62
     0
100
AcDbLine
 10
169.8831968651
 20
830.6470192329
 11
174.6957520171
 21
836.9033409305
  0
LINE
  5
3F6
100
AcDbEntity
  8
レイヤ1
  6
CONTINUOUS
 62
     0
100
AcDbLine
 10
174.6957520171
 20
836.9033409305
 11
209.9965774759
 21
881.93848812
  0
LINE
  5
3F7
100
AcDbEntity
  8
レイヤ1
  6
CONTINUOUS
 62
     0
100
AcDbLine
 10
209.9965774759
 20
881.93848812
 11
222.3400480218
 21
892.7289806936
  0
LINE
  5
3F8
100
AcDbEntity
  8
レイヤ1
  6
CONTINUOUS
 62
     0
100
AcDbLine
 10
222.3400480218
 20
892.7289806936
 11
236.2964579626
 21
913.9042233623
  0
LINE
  5
3F9
100
AcDbEntity
  8
レイヤ1
  6
CONTINUOUS
 62
     0
100
AcDbLine
 10
236.2964579626
 20
913.9042233623
 11
231.0026472954
 21
933.6356994855
  0
LINE
  5
3FA
100
AcDbEntity
  8
レイヤ1
  6
CONTINUOUS
 62
     0
100
AcDbLine
 10
231.0026472954
 20
933.6356994855
 11
226.6713476586
 21
941.8170432438
  0
LINE
  5
3FB
100
AcDbEntity
  8
レイヤ1
  6
CONTINUOUS
 62
     0
100
AcDbLine
 10
97.21361407013
 20
998.6051940373
 11
109.3436198835
 21
987.5310575646
  0
LINE
  5
3FC
100
AcDbEntity
  8
レイヤ1
  6
CONTINUOUS
 62
     0
100
AcDbLine
 10
109.3436198835
 20
987.5310575646
 11
125.1264339517
 21
955.2921976694
  0
LINE
  5
3FD
100
AcDbEntity
  8
レイヤ1
  6
CONTINUOUS
 62
     0
100
AcDbLine
 10
125.1264339517
 20
955.2921976694
 11
129.4577335884
 21
949.517131487
  0
LINE
  5
3FE
100
AcDbEntity
  8
レイヤ1
  6
CONTINUOUS
 62
     0
100
AcDbLine
 10
129.4577335884
 20
949.517131487
 11
137.6390773468
 21
940.8545322134
  0
LINE
  5
3FF
100
AcDbEntity
  8
レイヤ1
  6
CONTINUOUS
 62
     0
100
AcDbLine
 10
137.6390773468
 20
940.8545322134
 11
142.7976211675
 21
931.21561917
  0
LINE
  5
400
100
AcDbEntity
  8
レイヤ1
  6
CONTINUOUS
 62
     0
100
AcDbLine
 10
142.7976211675
 20
931.21561917
 11
145.1551290641
 21
922.7959481106
  0
LINE
  5
401
100
AcDbEntity
  8
レイヤ1
  6
CONTINUOUS
 62
     0
100
AcDbLine
 10
145.1551290641
 20
922.7959481106
 11
144.8183422217
 21
917.0705717902
  0
LINE
  5
402
100
AcDbEntity
  8
レイヤ1
  6
CONTINUOUS
 62
     0
100
AcDbLine
 10
144.8183422217
 20
917.0705717902
 11
143.1344080099
 21
915.3866375783
  0
LINE
  5
403
100
AcDbEntity
  8
レイヤ1
  6
CONTINUOUS
 62
     0
100
AcDbLine
 10
143.1344080099
 20
915.3866375783
 11
140.7769001132
 21
915.7234244207
  0
LINE
  5
404
100
AcDbEntity
  8
レイヤ1
  6
CONTINUOUS
 62
     0
100
AcDbLine
 10
152.0767428028
 20
914.3854788775
 11
164.6887659219
 21
919.0912928445
  0
LINE
  5
405
100
AcDbEntity
  8
レイヤ1
  6
CONTINUOUS
 62
     0
100
AcDbLine
 10
164.6887659219
 20
919.0912928445
 11
175.465944878
 21
929.1948981158
  0
LINE
  5
406
100
AcDbEntity
  8
レイヤ1
  6
CONTINUOUS
 62
     0
100
AcDbLine
 10
175.465944878
 20
929.1948981158
 11
187.9270580459
 21
941.3192244413
  0
LINE
  5
407
100
AcDbEntity
  8
レイヤ1
  6
CONTINUOUS
 62
     0
100
AcDbLine
 10
187.9270580459
 20
941.3192244413
 11
193.9892212087
 21
950.0756823431
  0
LINE
  5
408
100
AcDbEntity
  8
レイヤ1
  6
CONTINUOUS
 62
     0
100
AcDbLine
 10
193.9892212087
 20
950.0756823431
 11
197.3570896324
 21
956.8114191906
  0
LINE
  5
409
100
AcDbEntity
  8
レイヤ1
  6
CONTINUOUS
 62
     0
100
AcDbLine
 10
93.28995533819
 20
1005.308724493
 11
99.01533165858
 21
1005.645511335
  0
LINE
  5
40A
100
AcDbEntity
  8
レイヤ1
  6
CONTINUOUS
 62
     0
100
AcDbLine
 10
99.01533165858
 20
1005.645511335
 11
110.4660842994
 21
1002.951216596
  0
LINE
  5
40B
100
AcDbEntity
  8
レイヤ1
  6
CONTINUOUS
 62
     0
100
AcDbLine
 10
110.4660842994
 20
1002.951216596
 11
129.9997211572
 21
995.8786929062
  0
LINE
  5
40C
100
AcDbEntity
  8
レイヤ1
  6
CONTINUOUS
 62
     0
100
AcDbLine
 10
129.9997211572
 20
995.8786929062
 11
151.5540790693
 21
986.1118744773
  0
LINE
  5
40D
100
AcDbEntity
  8
レイヤ1
  6
CONTINUOUS
 62
     0
100
AcDbLine
 10
151.5540790693
 20
986.1118744773
 11
167.7198475033
 21
981.0600718417
  0
LINE
  5
40E
100
AcDbEntity
  8
レイヤ1
  6
CONTINUOUS
 62
     0
100
AcDbLine
 10
167.7198475033
 20
981.0600718417
 11
183.8856159374
 21
969.2725323585
  0
LINE
  5
40F
100
AcDbEntity
  8
レイヤ1
  6
CONTINUOUS
 62
     0
100
AcDbLine
 10
183.8856159374
 20
969.2725323585
 11
197.3570896324
 21
956.8114191906
  0
LINE
  5
410
100
AcDbEntity
  8
レイヤ1
  6
CONTINUOUS
 62
     0
100
AcDbLine
 10
197.3570896324
 20
956.8114191906
 11
201.7353185833
 21
951.759616555
  0
LINE
  5
411
100
AcDbEntity
  8
レイヤ1
  6
CONTINUOUS
 62
     0
100
AcDbLine
 10
201.7353185833
 20
951.759616555
 11
201.3985317409
 21
940.3088639142
  0
LINE
  5
412
100
AcDbEntity
  8
レイヤ1
  6
CONTINUOUS
 62
     0
100
AcDbLine
 10
201.3985317409
 20
940.3088639142
 11
201.7353185833
 21
933.2363402243
  0
LINE
  5
413
100
AcDbEntity
  8
レイヤ1
  6
CONTINUOUS
 62
     0
100
AcDbLine
 10
201.7353185833
 20
933.2363402243
 11
202.7456791104
 21
922.1223744259
  0
LINE
  5
414
100
AcDbEntity
  8
レイヤ1
  6
CONTINUOUS
 62
     0
100
AcDbLine
 10
179.1706001441
 20
930.8788323276
 11
188.937418573
 21
924.8166691649
  0
LINE
  5
415
100
AcDbEntity
  8
レイヤ1
  6
CONTINUOUS
 62
     0
100
AcDbLine
 10
188.937418573
 20
924.8166691649
 11
199.3778106867
 21
917.744145475
  0
LINE
  5
416
100
AcDbEntity
  8
レイヤ1
  6
CONTINUOUS
 62
     0
100
AcDbLine
 10
199.3778106867
 20
917.744145475
 11
203.4192527952
 21
917.0705717902
  0
LINE
  5
417
100
AcDbEntity
  8
レイヤ1
  6
CONTINUOUS
 62
     0
100
AcDbLine
 10
203.4192527952
 20
917.0705717902
 11
208.8078422732
 21
919.7648665292
  0
LINE
  5
418
100
AcDbEntity
  8
レイヤ1
  6
CONTINUOUS
 62
     0
100
AcDbLine
 10
208.8078422732
 20
919.7648665292
 11
226.6713476586
 21
941.8170432438
  0
LINE
  5
419
100
AcDbEntity
  8
レイヤ1
  6
CONTINUOUS
 62
     0
100
AcDbLine
 10
226.6713476586
 20
941.8170432438
 11
240.1290186142
 21
965.5678770924
  0
LINE
  5
41A
100
AcDbEntity
  8
レイヤ1
  6
CONTINUOUS
 62
     0
100
AcDbLine
 10
240.1290186142
 20
965.5678770924
 11
254.1029120249
 21
992.8301278549
  0
LINE
  5
41B
100
AcDbEntity
  8
レイヤ1
  6
CONTINUOUS
 62
     0
100
AcDbLine
 10
254.1029120249
 20
992.8301278549
 11
259.8779782073
 21
1013.042859493
  0
LINE
  5
41C
100
AcDbEntity
  8
レイヤ1
  6
CONTINUOUS
 62
     0
100
AcDbLine
 10
259.8779782073
 20
1013.042859493
 11
263.2467668137
 21
1030.849313556
  0
LINE
  5
41D
100
AcDbEntity
  8
レイヤ1
  6
CONTINUOUS
 62
     0
100
AcDbLine
 10
263.2467668137
 20
1030.849313556
 11
262.2842557833
 21
1045.286979012
  0
LINE
  5
41E
100
AcDbEntity
  8
レイヤ1
  6
CONTINUOUS
 62
     0
100
AcDbLine
 10
262.2842557833
 20
1045.286979012
 11
257.4717006313
 21
1058.280877922
  0
LINE
  5
41F
100
AcDbEntity
  8
レイヤ1
  6
CONTINUOUS
 62
     0
100
AcDbLine
 10
257.4717006313
 20
1058.280877922
 11
252.1778899641
 21
1065.49971065
  0
LINE
  5
420
100
AcDbEntity
  8
レイヤ1
  6
CONTINUOUS
 62
     0
100
AcDbLine
 10
252.1778899641
 20
1065.49971065
 11
238.7027355385
 21
1101.59387429
  0
LINE
  5
421
100
AcDbEntity
  8
レイヤ1
  6
CONTINUOUS
 62
     0
100
AcDbLine
 10
238.7027355385
 20
1101.59387429
 11
233.0564949243
 21
1106.681564048
  0
LINE
  5
422
100
AcDbEntity
  8
レイヤ1
  6
CONTINUOUS
 62
     0
100
AcDbLine
 10
233.0564949243
 20
1106.681564048
 11
219.2482343869
 21
1107.691924575
  0
LINE
  5
423
100
AcDbEntity
  8
レイヤ1
  6
CONTINUOUS
 62
     0
100
AcDbLine
 10
219.2482343869
 20
1107.691924575
 11
209.8182028003
 21
1107.691924575
  0
LINE
  5
424
100
AcDbEntity
  8
レイヤ1
  6
CONTINUOUS
 62
     0
100
AcDbLine
 10
209.8182028003
 20
1107.691924575
 11
189.2742054154
 21
1123.857693009
  0
LINE
  5
425
100
AcDbEntity
  8
レイヤ1
  6
CONTINUOUS
 62
     0
100
AcDbLine
 10
189.2742054154
 20
1123.857693009
 11
182.2016817255
 21
1125.541627221
  0
LINE
  5
426
100
AcDbEntity
  8
レイヤ1
  6
CONTINUOUS
 62
     0
100
AcDbLine
 10
182.2016817255
 20
1125.541627221
 11
155.2587343354
 21
1120.153037743
  0
LINE
  5
427
100
AcDbEntity
  8
レイヤ1
  6
CONTINUOUS
 62
     0
100
AcDbLine
 10
155.2587343354
 20
1120.153037743
 11
128.9893606301
 21
1117.121956162
  0
LINE
  5
428
100
AcDbEntity
  8
レイヤ1
  6
CONTINUOUS
 62
     0
100
AcDbLine
 10
128.9893606301
 20
1117.121956162
 11
109.4557237722
 21
1111.396579841
  0
LINE
  5
429
100
AcDbEntity
  8
レイヤ1
  6
CONTINUOUS
 62
     0
100
AcDbLine
 10
109.4557237722
 20
1111.396579841
 11
99.01533165858
 21
1110.386219314
  0
LINE
  5
42A
100
AcDbEntity
  8
レイヤ1
  6
CONTINUOUS
 62
     0
100
AcDbLine
 10
99.01533165858
 20
1110.386219314
 11
96.99461060433
 21
1106.344777206
  0
LINE
  5
42B
100
AcDbEntity
  8
レイヤ1
  6
CONTINUOUS
 62
     0
100
AcDbLine
 10
96.99461060433
 20
1106.344777206
 11
104.0671342942
 21
1095.230811407
  0
LINE
  5
42C
100
AcDbEntity
  8
レイヤ1
  6
CONTINUOUS
 62
     0
100
AcDbLine
 10
104.0671342942
 20
1095.230811407
 11
111.1396579841
 21
1078.728256131
  0
LINE
  5
42D
100
AcDbEntity
  8
レイヤ1
  6
CONTINUOUS
 62
     0
100
AcDbLine
 10
111.1396579841
 20
1078.728256131
 11
125.2847053639
 21
1051.111735056
  0
LINE
  5
42E
100
AcDbEntity
  8
レイヤ1
  6
CONTINUOUS
 62
     0
100
AcDbLine
 10
125.2847053639
 20
1051.111735056
 11
125.6214922063
 21
1048.417440317
  0
LINE
  5
42F
100
AcDbEntity
  8
レイヤ1
  6
CONTINUOUS
 62
     0
100
AcDbLine
 10
125.6214922063
 20
1048.417440317
 11
123.9375579944
 21
1048.417440317
  0
LINE
  5
430
100
AcDbEntity
  8
レイヤ1
  6
CONTINUOUS
 62
     0
100
AcDbLine
 10
123.9375579944
 20
1048.417440317
 11
116.1914606198
 21
1062.562487697
  0
LINE
  5
431
100
AcDbEntity
  8
レイヤ1
  6
CONTINUOUS
 62
     0
100
AcDbLine
 10
116.1914606198
 20
1062.562487697
 11
105.0774948214
 21
1074.35002718
  0
LINE
  5
432
100
AcDbEntity
  8
レイヤ1
  6
CONTINUOUS
 62
     0
100
AcDbLine
 10
105.0774948214
 20
1074.35002718
 11
101.7096263976
 21
1076.707535077
  0
LINE
  5
433
100
AcDbEntity
  8
レイヤ1
  6
CONTINUOUS
 62
     0
100
AcDbLine
 10
101.7096263976
 20
1076.707535077
 11
98.67854481621
 21
1076.707535077
  0
LINE
  5
434
100
AcDbEntity
  8
レイヤ1
  6
CONTINUOUS
 62
     0
100
AcDbLine
 10
107.7717895604
 20
1131.603790384
 11
111.4764448265
 21
1132.950937753
  0
LINE
  5
435
100
AcDbEntity
  8
レイヤ1
  6
CONTINUOUS
 62
     0
100
AcDbLine
 10
111.4764448265
 20
1132.950937753
 11
115.517886935
 21
1131.267003541
  0
LINE
  5
436
100
AcDbEntity
  8
レイヤ1
  6
CONTINUOUS
 62
     0
100
AcDbLine
 10
115.517886935
 20
1131.267003541
 11
116.8650343045
 21
1128.23592196
  0
LINE
  5
437
100
AcDbEntity
  8
レイヤ1
  6
CONTINUOUS
 62
     0
100
AcDbLine
 10
116.8650343045
 20
1128.23592196
 11
112.823592196
 21
1121.836971955
  0
LINE
  5
438
100
AcDbEntity
  8
レイヤ1
  6
CONTINUOUS
 62
     0
100
AcDbLine
 10
107.7717895604
 20
1131.603790384
 11
106.4246421909
 21
1125.204840379
  0
LINE
  5
439
100
AcDbEntity
  8
レイヤ1
  6
CONTINUOUS
 62
     0
100
AcDbLine
 10
106.4246421909
 20
1125.204840379
 11
104.0671342942
 21
1119.479464058
  0
LINE
  5
43A
100
AcDbEntity
  8
レイヤ1
  6
CONTINUOUS
 62
     0
100
AcDbLine
 10
104.0671342942
 20
1119.479464058
 11
101.7096263976
 21
1118.469103531
  0
LINE
  5
43B
100
AcDbEntity
  8
レイヤ1
  6
CONTINUOUS
 62
     0
100
AcDbLine
 10
99.68890534334
 20
1112.743727211
 11
103.3935606095
 21
1113.417300896
  0
LINE
  5
43C
100
AcDbEntity
  8
レイヤ1
  6
CONTINUOUS
 62
     0
100
AcDbLine
 10
103.3935606095
 20
1113.417300896
 11
111.1396579841
 21
1116.616775898
  0
LINE
  5
43D
100
AcDbEntity
  8
レイヤ1
  6
CONTINUOUS
 62
     0
100
AcDbLine
 10
107.0982158756
 20
1128.404315381
 11
104.1733863573
 21
1128.702143134
  0
LINE
  5
43E
100
AcDbEntity
  8
レイヤ1
  6
CONTINUOUS
 62
     0
100
AcDbLine
 10
104.1733863573
 20
1128.702143134
 11
97.80985370652
 21
1124.224101639
  0
LINE
  5
43F
100
AcDbEntity
  8
レイヤ1
  6
CONTINUOUS
 62
     0
100
AcDbLine
 10
97.80985370652
 20
1124.224101639
 11
94.74593057837
 21
1118.331941777
  0
LINE
  5
440
100
AcDbEntity
  8
レイヤ1
  6
CONTINUOUS
 62
     0
100
AcDbLine
 10
94.74593057837
 20
1118.331941777
 11
90.0322026889
 21
1103.955071714
  0
LINE
  5
441
100
AcDbEntity
  8
レイヤ1
  6
CONTINUOUS
 62
     0
100
AcDbLine
 10
90.0322026889
 20
1103.955071714
 11
89.56082989995
 21
1093.820556752
  0
LINE
  5
442
100
AcDbEntity
  8
レイヤ1
  6
CONTINUOUS
 62
     0
100
AcDbLine
 10
106.4246421909
 20
1125.204840379
 11
103.2306407794
 21
1121.867237694
  0
LINE
  5
443
100
AcDbEntity
  8
レイヤ1
  6
CONTINUOUS
 62
     0
100
AcDbLine
 10
103.2306407794
 20
1121.867237694
 11
101.7096263976
 21
1118.469103531
  0
LINE
  5
444
100
AcDbEntity
  8
レイヤ1
  6
CONTINUOUS
 62
     0
100
AcDbLine
 10
101.7096263976
 20
1118.469103531
 11
99.68890534334
 21
1112.743727211
  0
LINE
  5
445
100
AcDbEntity
  8
レイヤ1
  6
CONTINUOUS
 62
     0
100
AcDbLine
 10
99.68890534334
 20
1112.743727211
 11
96.99461060433
 21
1106.344777206
  0
LINE
  5
446
100
AcDbEntity
  8
レイヤ1
  6
CONTINUOUS
 62
     0
100
AcDbLine
 10
96.99461060433
 20
1106.344777206
 11
95.64746323482
 21
1085.127206136
  0
LINE
  5
447
100
AcDbEntity
  8
レイヤ1
  6
CONTINUOUS
 62
     0
100
AcDbLine
 10
102.3832000823
 20
1098.261892989
 11
100.1940856069
 21
1076.707535077
  0
LINE
  5
448
100
AcDbEntity
  8
レイヤ1
  6
CONTINUOUS
 62
     0
100
AcDbLine
 10
104.1733863573
 20
1128.702143134
 11
102.9949543849
 21
1131.766066262
  0
LINE
  5
449
100
AcDbEntity
  8
レイヤ1
  6
CONTINUOUS
 62
     0
100
AcDbLine
 10
102.9949543849
 20
1131.766066262
 11
101.3451496236
 21
1131.766066262
  0
LINE
  5
44A
100
AcDbEntity
  8
レイヤ1
  6
CONTINUOUS
 62
     0
100
AcDbLine
 10
101.3451496236
 20
1131.766066262
 11
97.1027945231
 21
1129.880575106
  0
LINE
  5
44B
100
AcDbEntity
  8
レイヤ1
  6
CONTINUOUS
 62
     0
100
AcDbLine
 10
97.1027945231
 20
1129.880575106
 11
89.56082989995
 21
1122.809983272
  0
LINE
  5
44C
100
AcDbEntity
  8
レイヤ1
  6
CONTINUOUS
 62
     0
100
AcDbLine
 10
89.56082989995
 20
1122.809983272
 11
87.91102513863
 21
1118.567628171
  0
LINE
  5
44D
100
AcDbEntity
  8
レイヤ1
  6
CONTINUOUS
 62
     0
100
AcDbLine
 10
87.91102513863
 20
1118.567628171
 11
86.73259316627
 21
1111.497036337
  0
LINE
  5
44E
100
AcDbEntity
  8
レイヤ1
  6
CONTINUOUS
 62
     0
100
AcDbLine
 10
86.73259316627
 20
1111.497036337
 11
86.73259316627
 21
1107.96174042
  0
LINE
  5
44F
100
AcDbEntity
  8
レイヤ1
  6
CONTINUOUS
 62
     0
100
AcDbLine
 10
86.73259316627
 20
1107.96174042
 11
88.61808432205
 21
1085.571532945
  0
LINE
  5
450
100
AcDbEntity
  8
レイヤ1
  6
CONTINUOUS
 62
     0
100
AcDbLine
 10
112.823592196
 20
1121.836971955
 11
119.2573156036
 21
1120.217432933
  0
LINE
  5
451
100
AcDbEntity
  8
レイヤ1
  6
CONTINUOUS
 62
     0
100
AcDbLine
 10
119.2573156036
 20
1120.217432933
 11
125.1494754655
 21
1116.91782341
  0
LINE
  5
452
100
AcDbEntity
  8
レイヤ1
  6
CONTINUOUS
 62
     0
100
AcDbLine
 10
111.1396579841
 20
1116.616775898
 11
116.9004516589
 21
1114.325273071
  0
LINE
  5
453
100
AcDbEntity
  8
レイヤ1
  6
CONTINUOUS
 62
     0
100
AcDbLine
 10
119.2573156036
 20
1120.217432933
 11
124.6781026765
 21
1127.759397556
  0
LINE
  5
454
100
AcDbEntity
  8
レイヤ1
  6
CONTINUOUS
 62
     0
100
AcDbLine
 10
124.6781026765
 20
1127.759397556
 11
135.2839904278
 21
1137.422539729
  0
LINE
  5
455
100
AcDbEntity
  8
レイヤ1
  6
CONTINUOUS
 62
     0
100
AcDbLine
 10
135.2839904278
 20
1137.422539729
 11
145.1828189957
 21
1144.493131564
  0
LINE
  5
456
100
AcDbEntity
  8
レイヤ1
  6
CONTINUOUS
 62
     0
100
AcDbLine
 10
145.1828189957
 20
1144.493131564
 11
154.1389019857
 21
1145.90724993
  0
LINE
  5
457
100
AcDbEntity
  8
レイヤ1
  6
CONTINUOUS
 62
     0
100
AcDbLine
 10
154.1389019857
 20
1145.90724993
 11
163.5663577646
 21
1141.429208435
  0
LINE
  5
458
100
AcDbEntity
  8
レイヤ1
  6
CONTINUOUS
 62
     0
100
AcDbLine
 10
163.5663577646
 20
1141.429208435
 11
165.6875353149
 21
1137.422539729
  0
LINE
  5
459
100
AcDbEntity
  8
レイヤ1
  6
CONTINUOUS
 62
     0
100
AcDbLine
 10
165.6875353149
 20
1137.422539729
 11
166.3945944983
 21
1132.237439051
  0
LINE
  5
45A
100
AcDbEntity
  8
レイヤ1
  6
CONTINUOUS
 62
     0
100
AcDbLine
 10
166.3945944983
 20
1132.237439051
 11
165.216162526
 21
1126.345279189
  0
LINE
  5
45B
100
AcDbEntity
  8
レイヤ1
  6
CONTINUOUS
 62
     0
100
AcDbLine
 10
165.216162526
 20
1126.345279189
 11
163.0949849757
 21
1124.224101639
  0
LINE
  5
45C
100
AcDbEntity
  8
レイヤ1
  6
CONTINUOUS
 62
     0
100
AcDbLine
 10
163.0949849757
 20
1124.224101639
 11
160.738121031
 21
1121.6315513
  0
LINE
  5
45D
100
AcDbEntity
  8
レイヤ1
  6
CONTINUOUS
 62
     0
100
AcDbLine
 10
131.3468685267
 20
1117.458743004
 11
136.7354580047
 21
1123.520906167
  0
LINE
  5
45E
100
AcDbEntity
  8
レイヤ1
  6
CONTINUOUS
 62
     0
100
AcDbLine
 10
136.7354580047
 20
1123.520906167
 11
151.5540790693
 21
1139.013100916
  0
LINE
  5
45F
100
AcDbEntity
  8
レイヤ1
  6
CONTINUOUS
 62
     0
100
AcDbLine
 10
151.5540790693
 20
1139.013100916
 11
154.921947493
 21
1140.360248286
  0
LINE
  5
460
100
AcDbEntity
  8
レイヤ1
  6
CONTINUOUS
 62
     0
100
AcDbLine
 10
154.921947493
 20
1140.360248286
 11
157.4385115083
 21
1139.54371728
  0
LINE
  5
461
100
AcDbEntity
  8
レイヤ1
  6
CONTINUOUS
 62
     0
100
AcDbLine
 10
157.4385115083
 20
1139.54371728
 11
160.266748242
 21
1136.479794151
  0
LINE
  5
462
100
AcDbEntity
  8
レイヤ1
  6
CONTINUOUS
 62
     0
100
AcDbLine
 10
160.266748242
 20
1136.479794151
 11
160.9738074254
 21
1133.651557418
  0
LINE
  5
463
100
AcDbEntity
  8
レイヤ1
  6
CONTINUOUS
 62
     0
100
AcDbLine
 10
160.9738074254
 20
1133.651557418
 11
160.0310618475
 21
1130.116261501
  0
LINE
  5
464
100
AcDbEntity
  8
レイヤ1
  6
CONTINUOUS
 62
     0
100
AcDbLine
 10
160.0310618475
 20
1130.116261501
 11
157.6741979028
 21
1126.109592795
  0
LINE
  5
465
100
AcDbEntity
  8
レイヤ1
  6
CONTINUOUS
 62
     0
100
AcDbLine
 10
157.6741979028
 20
1126.109592795
 11
152.9604700133
 21
1120.217432933
  0
LINE
  5
466
100
AcDbEntity
  8
レイヤ1
  6
CONTINUOUS
 62
     0
100
AcDbLine
 10
114.8443132503
 20
1125.036446957
 11
123.0282979152
 21
1125.8739064
  0
LINE
  5
467
100
AcDbEntity
  8
レイヤ1
  6
CONTINUOUS
 62
     0
100
AcDbLine
 10
95.21730336731
 20
1128.702143134
 11
87.43965234969
 21
1131.059007079
  0
LINE
  5
468
100
AcDbEntity
  8
レイヤ1
  6
CONTINUOUS
 62
     0
100
AcDbLine
 10
87.43965234969
 20
1131.059007079
 11
72.82709589233
 21
1148.735486664
  0
LINE
  5
469
100
AcDbEntity
  8
レイヤ1
  6
CONTINUOUS
 62
     0
100
AcDbLine
 10
72.82709589233
 20
1148.735486664
 11
63.39964011338
 21
1162.405297544
  0
LINE
  5
46A
100
AcDbEntity
  8
レイヤ1
  6
CONTINUOUS
 62
     0
100
AcDbLine
 10
63.39964011338
 20
1162.405297544
 11
58.21453943497
 21
1167.590398222
  0
LINE
  5
46B
100
AcDbEntity
  8
レイヤ1
  6
CONTINUOUS
 62
     0
100
AcDbLine
 10
58.21453943497
 20
1167.590398222
 11
53.97218433444
 21
1168.297457405
  0
LINE
  5
46C
100
AcDbEntity
  8
レイヤ1
  6
CONTINUOUS
 62
     0
100
AcDbLine
 10
53.97218433444
 20
1168.297457405
 11
48.0800244726
 21
1168.061771011
  0
LINE
  5
46D
100
AcDbEntity
  8
レイヤ1
  6
CONTINUOUS
 62
     0
100
AcDbLine
 10
48.0800244726
 20
1168.061771011
 11
45.72316052787
 21
1165.233534277
  0
LINE
  5
46E
100
AcDbEntity
  8
レイヤ1
  6
CONTINUOUS
 62
     0
100
AcDbLine
 10
45.72316052787
 20
1165.233534277
 11
44.78041494997
 21
1157.45588326
  0
LINE
  5
46F
100
AcDbEntity
  8
レイヤ1
  6
CONTINUOUS
 62
     0
100
AcDbLine
 10
44.78041494997
 20
1157.45588326
 11
46.43021971129
 21
1151.328037003
  0
LINE
  5
470
100
AcDbEntity
  8
レイヤ1
  6
CONTINUOUS
 62
     0
100
AcDbLine
 10
46.43021971129
 20
1151.328037003
 11
51.14394760076
 21
1143.550385986
  0
LINE
  5
471
100
AcDbEntity
  8
レイヤ1
  6
CONTINUOUS
 62
     0
100
AcDbLine
 10
51.14394760076
 20
1143.550385986
 11
57.74316664602
 21
1137.422539729
  0
LINE
  5
472
100
AcDbEntity
  8
レイヤ1
  6
CONTINUOUS
 62
     0
100
AcDbLine
 10
57.74316664602
 20
1137.422539729
 11
69.99885915864
 21
1131.294693473
  0
LINE
  5
473
100
AcDbEntity
  8
レイヤ1
  6
CONTINUOUS
 62
     0
100
AcDbLine
 10
69.99885915864
 20
1131.294693473
 11
79.89768772653
 21
1124.931160822
  0
LINE
  5
474
100
AcDbEntity
  8
レイヤ1
  6
CONTINUOUS
 62
     0
100
AcDbLine
 10
79.89768772653
 20
1124.931160822
 11
84.14004282706
 21
1119.746060144
  0
LINE
  5
475
100
AcDbEntity
  8
レイヤ1
  6
CONTINUOUS
 62
     0
100
AcDbLine
 10
84.14004282706
 20
1119.746060144
 11
87.43965234969
 21
1116.682137016
  0
LINE
  5
476
100
AcDbEntity
  8
レイヤ1
  6
CONTINUOUS
 62
     0
100
AcDbLine
 10
91.91769384468
 20
1125.166847217
 11
83.90435643258
 21
1129.880575106
  0
LINE
  5
477
100
AcDbEntity
  8
レイヤ1
  6
CONTINUOUS
 62
     0
100
AcDbLine
 10
83.90435643258
 20
1129.880575106
 11
69.5274863697
 21
1137.422539729
  0
LINE
  5
478
100
AcDbEntity
  8
レイヤ1
  6
CONTINUOUS
 62
     0
100
AcDbLine
 10
69.5274863697
 20
1137.422539729
 11
61.5141489576
 21
1141.66489483
  0
LINE
  5
479
100
AcDbEntity
  8
レイヤ1
  6
CONTINUOUS
 62
     0
100
AcDbLine
 10
61.5141489576
 20
1141.66489483
 11
55.62198909576
 21
1147.085681903
  0
LINE
  5
47A
100
AcDbEntity
  8
レイヤ1
  6
CONTINUOUS
 62
     0
100
AcDbLine
 10
55.62198909576
 20
1147.085681903
 11
50.90826120629
 21
1155.570392104
  0
LINE
  5
47B
100
AcDbEntity
  8
レイヤ1
  6
CONTINUOUS
 62
     0
100
AcDbLine
 10
50.90826120629
 20
1155.570392104
 11
50.20120202287
 21
1160.284119993
  0
LINE
  5
47C
100
AcDbEntity
  8
レイヤ1
  6
CONTINUOUS
 62
     0
100
AcDbLine
 10
50.20120202287
 20
1160.284119993
 11
51.37963399523
 21
1163.348043121
  0
LINE
  5
47D
100
AcDbEntity
  8
レイヤ1
  6
CONTINUOUS
 62
     0
100
AcDbLine
 10
51.37963399523
 20
1163.348043121
 11
54.20787072892
 21
1163.81941591
  0
LINE
  5
47E
100
AcDbEntity
  8
レイヤ1
  6
CONTINUOUS
 62
     0
100
AcDbLine
 10
54.20787072892
 20
1163.81941591
 11
57.0361074626
 21
1161.933924755
  0
LINE
  5
47F
100
AcDbEntity
  8
レイヤ1
  6
CONTINUOUS
 62
     0
100
AcDbLine
 10
57.0361074626
 20
1161.933924755
 11
61.5141489576
 21
1154.627646526
  0
LINE
  5
480
100
AcDbEntity
  8
レイヤ1
  6
CONTINUOUS
 62
     0
100
AcDbLine
 10
61.5141489576
 20
1154.627646526
 11
63.87101290233
 21
1147.085681903
  0
LINE
  5
481
100
AcDbEntity
  8
レイヤ1
  6
CONTINUOUS
 62
     0
100
AcDbLine
 10
63.87101290233
 20
1147.085681903
 11
66.93493603049
 21
1142.607640408
  0
LINE
  5
482
100
AcDbEntity
  8
レイヤ1
  6
CONTINUOUS
 62
     0
100
AcDbLine
 10
66.93493603049
 20
1142.607640408
 11
74.47690065364
 21
1136.479794151
  0
LINE
  5
483
100
AcDbEntity
  8
レイヤ1
  6
CONTINUOUS
 62
     0
100
AcDbLine
 10
74.47690065364
 20
1136.479794151
 11
80.36906051548
 21
1132.001752656
  0
LINE
  5
484
100
AcDbEntity
  8
レイヤ1
  6
CONTINUOUS
 62
     0
100
AcDbLine
 10
65.28513126917
 20
1160.284119993
 11
65.75650405812
 21
1168.061771011
  0
LINE
  5
485
100
AcDbEntity
  8
レイヤ1
  6
CONTINUOUS
 62
     0
100
AcDbLine
 10
65.75650405812
 20
1168.061771011
 11
67.87768160838
 21
1174.660990056
  0
LINE
  5
486
100
AcDbEntity
  8
レイヤ1
  6
CONTINUOUS
 62
     0
100
AcDbLine
 10
67.87768160838
 20
1174.660990056
 11
70.94160473654
 21
1178.667658762
  0
LINE
  5
487
100
AcDbEntity
  8
レイヤ1
  6
CONTINUOUS
 62
     0
100
AcDbLine
 10
70.94160473654
 20
1178.667658762
 11
75.41964623154
 21
1180.553149918
  0
LINE
  5
488
100
AcDbEntity
  8
レイヤ1
  6
CONTINUOUS
 62
     0
100
AcDbLine
 10
75.41964623154
 20
1180.553149918
 11
81.0761196989
 21
1180.317463524
  0
LINE
  5
489
100
AcDbEntity
  8
レイヤ1
  6
CONTINUOUS
 62
     0
100
AcDbLine
 10
81.0761196989
 20
1180.317463524
 11
84.611415616
 21
1177.960599579
  0
LINE
  5
48A
100
AcDbEntity
  8
レイヤ1
  6
CONTINUOUS
 62
     0
100
AcDbLine
 10
84.611415616
 20
1177.960599579
 11
86.49690677179
 21
1174.189617267
  0
LINE
  5
48B
100
AcDbEntity
  8
レイヤ1
  6
CONTINUOUS
 62
     0
100
AcDbLine
 10
86.49690677179
 20
1174.189617267
 11
86.96827956074
 21
1168.768830194
  0
LINE
  5
48C
100
AcDbEntity
  8
レイヤ1
  6
CONTINUOUS
 62
     0
100
AcDbLine
 10
86.96827956074
 20
1168.768830194
 11
85.5541611939
 21
1158.398628837
  0
LINE
  5
48D
100
AcDbEntity
  8
レイヤ1
  6
CONTINUOUS
 62
     0
100
AcDbLine
 10
85.5541611939
 20
1158.398628837
 11
81.0761196989
 21
1146.849995508
  0
LINE
  5
48E
100
AcDbEntity
  8
レイヤ1
  6
CONTINUOUS
 62
     0
100
AcDbLine
 10
81.0761196989
 20
1146.849995508
 11
80.13337412101
 21
1139.897246871
  0
LINE
  5
48F
100
AcDbEntity
  8
レイヤ1
  6
CONTINUOUS
 62
     0
100
AcDbLine
 10
69.5274863697
 20
1154.391960131
 11
69.05611358075
 21
1160.284119993
  0
LINE
  5
490
100
AcDbEntity
  8
レイヤ1
  6
CONTINUOUS
 62
     0
100
AcDbLine
 10
69.05611358075
 20
1160.284119993
 11
70.23454555312
 21
1168.297457405
  0
LINE
  5
491
100
AcDbEntity
  8
レイヤ1
  6
CONTINUOUS
 62
     0
100
AcDbLine
 10
70.23454555312
 20
1168.297457405
 11
73.29846868127
 21
1172.7754989
  0
LINE
  5
492
100
AcDbEntity
  8
レイヤ1
  6
CONTINUOUS
 62
     0
100
AcDbLine
 10
73.29846868127
 20
1172.7754989
 11
76.36239180943
 21
1175.603735634
  0
LINE
  5
493
100
AcDbEntity
  8
レイヤ1
  6
CONTINUOUS
 62
     0
100
AcDbLine
 10
76.36239180943
 20
1175.603735634
 11
81.54749248785
 21
1175.603735634
  0
LINE
  5
494
100
AcDbEntity
  8
レイヤ1
  6
CONTINUOUS
 62
     0
100
AcDbLine
 10
81.54749248785
 20
1175.603735634
 11
82.49023806574
 21
1173.482558084
  0
LINE
  5
495
100
AcDbEntity
  8
レイヤ1
  6
CONTINUOUS
 62
     0
100
AcDbLine
 10
82.49023806574
 20
1173.482558084
 11
82.0188652768
 21
1164.290788699
  0
LINE
  5
496
100
AcDbEntity
  8
レイヤ1
  6
CONTINUOUS
 62
     0
100
AcDbLine
 10
82.0188652768
 20
1164.290788699
 11
78.01219657074
 21
1151.092350609
  0
LINE
  5
497
100
AcDbEntity
  8
レイヤ1
  6
CONTINUOUS
 62
     0
100
AcDbLine
 10
78.01219657074
 20
1151.092350609
 11
77.30513738732
 21
1143.78607238
  0
LINE
  5
498
100
AcDbEntity
  8
レイヤ1
  6
CONTINUOUS
 62
     0
100
AcDbLine
 10
107.2666092968
 20
1115.017038397
 11
105.8885343829
 21
1111.169869373
  0
LINE
  5
499
100
AcDbEntity
  8
レイヤ1
  6
CONTINUOUS
 62
     0
100
AcDbLine
 10
112.823592196
 20
1121.836971955
 11
111.1396579841
 21
1116.616775898
  0
LINE
  5
49A
100
AcDbEntity
  8
レイヤ1
  6
CONTINUOUS
 62
     0
100
AcDbLine
 10
95.64746323482
 20
1085.127206136
 11
94.27455778942
 21
1048.804455407
  0
LINE
  5
49B
100
AcDbEntity
  8
レイヤ1
  6
CONTINUOUS
 62
     0
100
AcDbLine
 10
94.27455778942
 20
1048.804455407
 11
93.33181221153
 21
1012.508750658
  0
LINE
  5
49C
100
AcDbEntity
  8
レイヤ1
  6
CONTINUOUS
 62
     0
100
AcDbLine
 10
93.33181221153
 20
1012.508750658
 11
93.28995533819
 21
1005.308724493
  0
LINE
  5
49D
100
AcDbEntity
  8
レイヤ1
  6
CONTINUOUS
 62
     0
100
AcDbLine
 10
93.28995533819
 20
1005.308724493
 11
92.40105891815
 21
1001.973982644
  0
LINE
  5
49E
100
AcDbEntity
  8
レイヤ1
  6
CONTINUOUS
 62
     0
100
AcDbLine
 10
92.40105891815
 20
1001.973982644
 11
91.21063466126
 21
992.9467799171
  0
LINE
  5
49F
100
AcDbEntity
  8
レイヤ1
  6
CONTINUOUS
 62
     0
100
AcDbLine
 10
91.21063466126
 20
992.9467799171
 11
89.79651629442
 21
989.8828567889
  0
LINE
  5
4A0
100
AcDbEntity
  8
レイヤ1
  6
CONTINUOUS
 62
     0
100
AcDbLine
 10
89.79651629442
 20
989.8828567889
 11
86.96827956074
 21
989.6471703944
  0
LINE
  5
4A1
100
AcDbEntity
  8
レイヤ1
  6
CONTINUOUS
 62
     0
100
AcDbLine
 10
91.21063466126
 20
992.9467799171
 11
93.80318500047
 21
990.3542295779
  0
LINE
  5
4A2
100
AcDbEntity
  8
レイヤ1
  6
CONTINUOUS
 62
     0
100
AcDbLine
 10
93.80318500047
 20
990.3542295779
 11
96.63142173416
 21
983.9906969271
  0
LINE
  5
4A3
100
AcDbEntity
  8
レイヤ1
  6
CONTINUOUS
 62
     0
100
AcDbLine
 10
96.63142173416
 20
983.9906969271
 11
96.63142173416
 21
979.5126554321
  0
LINE
  5
4A4
100
AcDbEntity
  8
レイヤ1
  6
CONTINUOUS
 62
     0
100
AcDbLine
 10
96.63142173416
 20
979.5126554321
 11
94.27455778942
 21
975.977359515
  0
LINE
  5
4A5
100
AcDbEntity
  8
レイヤ1
  6
CONTINUOUS
 62
     0
100
AcDbLine
 10
94.27455778942
 20
975.977359515
 11
90.50357547784
 21
975.0346139371
  0
LINE
  5
4A6
100
AcDbEntity
  8
レイヤ1
  6
CONTINUOUS
 62
     0
100
AcDbLine
 10
90.50357547784
 20
975.0346139371
 11
88.85377071653
 21
975.7416731205
  0
LINE
  5
4A7
100
AcDbEntity
  8
レイヤ1
  6
CONTINUOUS
 62
     0
100
AcDbLine
 10
88.85377071653
 20
975.7416731205
 11
86.96827956074
 21
977.6271642763
  0
LINE
  5
4A8
100
AcDbEntity
  8
レイヤ1
  6
CONTINUOUS
 62
     0
100
AcDbLine
 10
86.96827956074
 20
977.6271642763
 11
86.26122037732
 21
979.0412826431
  0
LINE
  5
4A9
100
AcDbEntity
  8
レイヤ1
  6
CONTINUOUS
 62
     0
100
AcDbLine
 10
98.67854481621
 20
1076.707535077
 11
97.33848091758
 21
1054.22524248
  0
LINE
  5
4AA
100
AcDbEntity
  8
レイヤ1
  6
CONTINUOUS
 62
     0
100
AcDbLine
 10
97.33848091758
 20
1054.22524248
 11
96.16004894521
 21
1032.0707214
  0
LINE
  5
4AB
100
AcDbEntity
  8
レイヤ1
  6
CONTINUOUS
 62
     0
100
AcDbLine
 10
96.16004894521
 20
1032.0707214
 11
93.80318500047
 21
1022.878952015
  0
LINE
  5
4AC
100
AcDbEntity
  8
レイヤ1
  6
CONTINUOUS
 62
     0
100
AcDbLine
 10
88.61808432205
 20
1085.571532945
 11
88.23815270255
 21
1049.764587686
  0
LINE
  5
4AD
100
AcDbEntity
  8
レイヤ1
  6
CONTINUOUS
 62
     0
100
AcDbLine
 10
88.23815270255
 20
1049.764587686
 11
86.89100533304
 21
1028.883803459
  0
LINE
  5
4AE
100
AcDbEntity
  8
レイヤ1
  6
CONTINUOUS
 62
     0
100
AcDbLine
 10
86.89100533304
 20
1028.883803459
 11
83.18635006691
 21
1007.329445547
  0
LINE
  5
4AF
100
AcDbEntity
  8
レイヤ1
  6
CONTINUOUS
 62
     0
100
AcDbLine
 10
83.18635006691
 20
1007.329445547
 11
83.25720412937
 21
976.9486958533
  0
LINE
  5
4B0
100
AcDbEntity
  8
レイヤ1
  6
CONTINUOUS
 62
     0
100
AcDbLine
 10
83.25720412937
 20
976.9486958533
 11
83.18635006691
 21
964.8943034076
  0
LINE
  5
4B1
100
AcDbEntity
  8
レイヤ1
  6
CONTINUOUS
 62
     0
100
AcDbLine
 10
83.18635006691
 20
964.8943034076
 11
81.31180609337
 21
963.2502942134
  0
LINE
  5
4B2
100
AcDbEntity
  8
レイヤ1
  6
CONTINUOUS
 62
     0
100
AcDbLine
 10
81.31180609337
 20
963.2502942134
 11
80.33458329478
 21
962.7453437668
  0
LINE
  5
4B3
100
AcDbEntity
  8
レイヤ1
  6
CONTINUOUS
 62
     0
100
AcDbLine
 10
80.33458329478
 20
962.7453437668
 11
78.60323451687
 21
958.2438369443
  0
LINE
  5
4B4
100
AcDbEntity
  8
レイヤ1
  6
CONTINUOUS
 62
     0
100
AcDbLine
 10
78.60323451687
 20
958.2438369443
 11
78.01444978675
 21
954.1513573285
  0
LINE
  5
4B5
100
AcDbEntity
  8
レイヤ1
  6
CONTINUOUS
 62
     0
100
AcDbLine
 10
78.01444978675
 20
954.1513573285
 11
79.52662053175
 21
952.2418278476
  0
LINE
  5
4B6
100
AcDbEntity
  8
レイヤ1
  6
CONTINUOUS
 62
     0
100
AcDbLine
 10
79.52662053175
 20
952.2418278476
 11
82.8738948357
 21
950.2796325659
  0
LINE
  5
4B7
100
AcDbEntity
  8
レイヤ1
  6
CONTINUOUS
 62
     0
100
AcDbLine
 10
82.8738948357
 20
950.2796325659
 11
86.68286214709
 21
949.8179395585
  0
LINE
  5
4B8
100
AcDbEntity
  8
レイヤ1
  6
CONTINUOUS
 62
     0
100
AcDbLine
 10
86.68286214709
 20
949.8179395585
 11
90.87941190804
 21
952.0071969749
  0
LINE
  5
4B9
100
AcDbEntity
  8
レイヤ1
  6
CONTINUOUS
 62
     0
100
AcDbLine
 10
90.87941190804
 20
952.0071969749
 11
92.69370143796
 21
954.4812281521
  0
LINE
  5
4BA
100
AcDbEntity
  8
レイヤ1
  6
CONTINUOUS
 62
     0
100
AcDbLine
 10
92.69370143796
 20
954.4812281521
 11
93.51837849702
 21
958.7695488592
  0
LINE
  5
4BB
100
AcDbEntity
  8
レイヤ1
  6
CONTINUOUS
 62
     0
100
AcDbLine
 10
93.51837849702
 20
958.7695488592
 11
92.69370143796
 21
962.5630633308
  0
LINE
  5
4BC
100
AcDbEntity
  8
レイヤ1
  6
CONTINUOUS
 62
     0
100
AcDbLine
 10
92.69370143796
 20
962.5630633308
 11
89.88979943717
 21
965.5319007435
  0
LINE
  5
4BD
100
AcDbEntity
  8
レイヤ1
  6
CONTINUOUS
 62
     0
100
AcDbLine
 10
89.88979943717
 20
965.5319007435
 11
87.25083284819
 21
967.1812548616
  0
LINE
  5
4BE
100
AcDbEntity
  8
レイヤ1
  6
CONTINUOUS
 62
     0
100
AcDbLine
 10
87.25083284819
 20
967.1812548616
 11
86.26122037732
 21
979.0412826431
  0
LINE
  5
4BF
100
AcDbEntity
  8
レイヤ1
  6
CONTINUOUS
 62
     0
100
AcDbLine
 10
86.26122037732
 20
979.0412826431
 11
86.96827956074
 21
989.6471703944
  0
LINE
  5
4C0
100
AcDbEntity
  8
レイヤ1
  6
CONTINUOUS
 62
     0
100
AcDbLine
 10
86.96827956074
 20
989.6471703944
 11
88.14671153311
 21
1012.037377869
  0
LINE
  5
4C1
100
AcDbEntity
  8
レイヤ1
  6
CONTINUOUS
 62
     0
100
AcDbLine
 10
88.14671153311
 20
1012.037377869
 11
91.26923428393
 21
1039.324195573
  0
LINE
  5
4C2
100
AcDbEntity
  8
レイヤ1
  6
CONTINUOUS
 62
     0
100
AcDbLine
 10
91.26923428393
 20
1039.324195573
 11
92.27959481106
 21
1080.0754035
  0
LINE
  5
4C3
100
AcDbEntity
  8
レイヤ1
  6
CONTINUOUS
 62
     0
100
AcDbLine
 10
92.27959481106
 20
1080.0754035
 11
96.99461060433
 21
1106.344777206
  0
LINE
  5
4C4
100
AcDbEntity
  8
レイヤ1
  6
CONTINUOUS
 62
     0
100
AcDbLine
 10
231.3725607124
 20
902.9255244104
 11
226.3207580768
 21
888.1069033459
  0
LINE
  5
4C5
100
AcDbEntity
  8
レイヤ1
  6
CONTINUOUS
 62
     0
100
AcDbLine
 10
226.3207580768
 20
888.1069033459
 11
224.6368238649
 21
871.2675612271
  0
LINE
  5
4C6
100
AcDbEntity
  8
レイヤ1
  6
CONTINUOUS
 62
     0
100
AcDbLine
 10
224.6368238649
 20
871.2675612271
 11
221.1916812134
 21
854.5988663611
  0
ENDSEC
  0
SECTION
  2
OBJECTS
  0
DICTIONARY
  5
4C7
100
AcDbDictionary
  3
ACAD_GROUP
350
4C8
  3
ACAD_MLINESTYLE
350
4C9
  0
DICTIONARY
  5
4C8
100
AcDbDictionary
  0
DICTIONARY
  5
4C9
100
AcDbDictionary
  3
STANDARD
350
4CA
  0
MLINESTYLE
  5
4CA
100
AcDbMlineStyle
  2
STANDARD
 70
     0
  3

 62
   256
 51
90
 52
90
 71
     0
  0
ENDSEC
  0
EOF
